  0
SECTION
  2
HEADER
  9
$ACADVER
  1
AC1014
  9
$ACADMAINTVER
 70
     9
  9
$DWGCODEPAGE
  3
ANSI_1252
  9
$INSBASE
 10
0.0
 20
0.0
 30
0.0
  9
$EXTMIN
 10
1.000000000000000E+20
 20
1.000000000000000E+20
 30
1.000000000000000E+20
  9
$EXTMAX
 10
-1.000000000000000E+20
 20
-1.000000000000000E+20
 30
-1.000000000000000E+20
  9
$LIMMIN
 10
0.0
 20
0.0
  9
$LIMMAX
 10
12.0
 20
9.0
  9
$ORTHOMODE
 70
     0
  9
$REGENMODE
 70
     1
  9
$FILLMODE
 70
     1
  9
$QTEXTMODE
 70
     0
  9
$MIRRTEXT
 70
     1
  9
$DRAGMODE
 70
     2
  9
$LTSCALE
 40
1.0
  9
$OSMODE
 70
    37
  9
$ATTMODE
 70
     1
  9
$TEXTSIZE
 40
0.2
  9
$TRACEWID
 40
0.05
  9
$TEXTSTYLE
  7
STANDARD
  9
$CLAYER
  8
0
  9
$CELTYPE
  6
BYLAYER
  9
$CECOLOR
 62
   256
  9
$CELTSCALE
 40
1.0
  9
$DELOBJ
 70
     1
  9
$DISPSILH
 70
     0
  9
$DIMSCALE
 40
1.0
  9
$DIMASZ
 40
0.06
  9
$DIMEXO
 40
0.0625
  9
$DIMDLI
 40
0.38
  9
$DIMRND
 40
0.0
  9
$DIMDLE
 40
0.0
  9
$DIMEXE
 40
0.18
  9
$DIMTP
 40
0.0
  9
$DIMTM
 40
0.0
  9
$DIMTXT
 40
0.0821180555555555
  9
$DIMCEN
 40
0.09
  9
$DIMTSZ
 40
0.0
  9
$DIMTOL
 70
     0
  9
$DIMLIM
 70
     0
  9
$DIMTIH
 70
     1
  9
$DIMTOH
 70
     1
  9
$DIMSE1
 70
     0
  9
$DIMSE2
 70
     0
  9
$DIMTAD
 70
     0
  9
$DIMZIN
 70
     0
  9
$DIMBLK
  1

  9
$DIMASO
 70
     1
  9
$DIMSHO
 70
     1
  9
$DIMPOST
  1

  9
$DIMAPOST
  1

  9
$DIMALT
 70
     0
  9
$DIMALTD
 70
     2
  9
$DIMALTF
 40
25.4
  9
$DIMLFAC
 40
1.0
  9
$DIMTOFL
 70
     0
  9
$DIMTVP
 40
0.0
  9
$DIMTIX
 70
     0
  9
$DIMSOXD
 70
     0
  9
$DIMSAH
 70
     0
  9
$DIMBLK1
  1

  9
$DIMBLK2
  1

  9
$DIMSTYLE
  2
STANDARD
  9
$DIMCLRD
 70
     0
  9
$DIMCLRE
 70
     0
  9
$DIMCLRT
 70
     0
  9
$DIMTFAC
 40
1.0
  9
$DIMGAP
 40
0.09
  9
$DIMJUST
 70
     0
  9
$DIMSD1
 70
     0
  9
$DIMSD2
 70
     0
  9
$DIMTOLJ
 70
     1
  9
$DIMTZIN
 70
     0
  9
$DIMALTZ
 70
     0
  9
$DIMALTTZ
 70
     0
  9
$DIMFIT
 70
     3
  9
$DIMUPT
 70
     0
  9
$DIMUNIT
 70
     2
  9
$DIMDEC
 70
     4
  9
$DIMTDEC
 70
     4
  9
$DIMALTU
 70
     2
  9
$DIMALTTD
 70
     2
  9
$DIMTXSTY
  7
STANDARD
  9
$DIMAUNIT
 70
     0
  9
$LUNITS
 70
     2
  9
$LUPREC
 70
     4
  9
$SKETCHINC
 40
0.1
  9
$FILLETRAD
 40
0.5
  9
$AUNITS
 70
     0
  9
$AUPREC
 70
     0
  9
$MENU
  1
.
  9
$ELEVATION
 40
0.0
  9
$PELEVATION
 40
0.0
  9
$THICKNESS
 40
0.0
  9
$LIMCHECK
 70
     0
  9
$CHAMFERA
 40
0.5
  9
$CHAMFERB
 40
0.5
  9
$CHAMFERC
 40
1.0
  9
$CHAMFERD
 40
0.0
  9
$SKPOLY
 70
     0
  9
$TDCREATE
 40
2456147.72744419
  9
$TDUPDATE
 40
2456147.727444201
  9
$TDINDWG
 40
0.0000000116
  9
$TDUSRTIMER
 40
0.0000000116
  9
$USRTIMER
 70
     1
  9
$ANGBASE
 50
0.0
  9
$ANGDIR
 70
     0
  9
$PDMODE
 70
     0
  9
$PDSIZE
 40
0.0
  9
$PLINEWID
 40
0.0
  9
$COORDS
 70
     1
  9
$SPLFRAME
 70
     0
  9
$SPLINETYPE
 70
     6
  9
$SPLINESEGS
 70
     8
  9
$ATTDIA
 70
     0
  9
$ATTREQ
 70
     1
  9
$HANDLING
 70
     1
  9
$HANDSEED
  5
5B1
  9
$SURFTAB1
 70
     6
  9
$SURFTAB2
 70
     6
  9
$SURFTYPE
 70
     6
  9
$SURFU
 70
     6
  9
$SURFV
 70
     6
  9
$UCSNAME
  2

  9
$UCSORG
 10
0.0
 20
0.0
 30
0.0
  9
$UCSXDIR
 10
1.0
 20
0.0
 30
0.0
  9
$UCSYDIR
 10
0.0
 20
1.0
 30
0.0
  9
$PUCSNAME
  2

  9
$PUCSORG
 10
0.0
 20
0.0
 30
0.0
  9
$PUCSXDIR
 10
1.0
 20
0.0
 30
0.0
  9
$PUCSYDIR
 10
0.0
 20
1.0
 30
0.0
  9
$USERI1
 70
     0
  9
$USERI2
 70
     0
  9
$USERI3
 70
     0
  9
$USERI4
 70
     0
  9
$USERI5
 70
     0
  9
$USERR1
 40
0.0
  9
$USERR2
 40
0.0
  9
$USERR3
 40
0.0
  9
$USERR4
 40
0.0
  9
$USERR5
 40
0.0
  9
$WORLDVIEW
 70
     1
  9
$SHADEDGE
 70
     3
  9
$SHADEDIF
 70
    70
  9
$TILEMODE
 70
     1
  9
$MAXACTVP
 70
    64
  9
$PINSBASE
 10
0.0
 20
0.0
 30
0.0
  9
$PLIMCHECK
 70
     0
  9
$PEXTMIN
 10
1.000000000000000E+20
 20
1.000000000000000E+20
 30
1.000000000000000E+20
  9
$PEXTMAX
 10
-1.000000000000000E+20
 20
-1.000000000000000E+20
 30
-1.000000000000000E+20
  9
$PLIMMIN
 10
0.0
 20
0.0
  9
$PLIMMAX
 10
12.0
 20
9.0
  9
$UNITMODE
 70
     0
  9
$VISRETAIN
 70
     1
  9
$PLINEGEN
 70
     0
  9
$PSLTSCALE
 70
     1
  9
$TREEDEPTH
 70
  3020
  9
$PICKSTYLE
 70
     1
  9
$CMLSTYLE
  2
STANDARD
  9
$CMLJUST
 70
     0
  9
$CMLSCALE
 40
1.0
  9
$PROXYGRAPHICS
 70
     1
  9
$MEASUREMENT
 70
     0
  0
ENDSEC
  0
SECTION
  2
CLASSES
  0
CLASS
  1
ACDBDICTIONARYWDFLT
  2
AcDbDictionaryWithDefault
  3
ObjectDBX Classes
 90
        0
280
     0
281
     0
  0
CLASS
  1
VISUALSTYLE
  2
AcDbVisualStyle
  3
ObjectDBX Classes
 90
     4095
280
     0
281
     0
  0
CLASS
  1
SCALE
  2
AcDbScale
  3
ObjectDBX Classes
 90
     1153
280
     0
281
     0
  0
CLASS
  1
DICTIONARYVAR
  2
AcDbDictionaryVar
  3
ObjectDBX Classes
 90
        0
280
     0
281
     0
  0
CLASS
  1
XRECORD
  2
AcDbXrecord
  3
AutoCAD 2000
 90
        0
280
     0
281
     0
  0
CLASS
  1
LWPOLYLINE
  2
AcDbPolyline
  3
AutoCAD 2000
 90
        0
280
     0
281
     1
  0
CLASS
  1
HATCH
  2
AcDbHatch
  3
AutoCAD 2000
 90
        0
280
     0
281
     1
  0
CLASS
  1
ACDBPLACEHOLDER
  2
AcDbPlaceHolder
  3
ObjectDBX Classes
 90
        0
280
     0
281
     0
  0
CLASS
  1
LAYOUT
  2
AcDbLayout
  3
ObjectDBX Classes
 90
        0
280
     0
281
     0
  0
ENDSEC
  0
SECTION
  2
TABLES
  0
TABLE
  2
VPORT
  5
8
330
0
100
AcDbSymbolTable
 70
     1
  0
VPORT
  5
29
330
8
100
AcDbSymbolTableRecord
100
AcDbViewportTableRecord
  2
*ACTIVE
 70
     0
 10
0.0
 20
0.0
 11
1.0
 21
1.0
 12
10.42990654205607
 22
4.5
 13
0.0
 23
0.0
 14
0.5
 24
0.5
 15
0.5
 25
0.5
 16
0.0
 26
0.0
 36
1.0
 17
0.0
 27
0.0
 37
0.0
 40
9.0
 41
1.972972972850329
 42
50.0
 43
0.0
 44
0.0
 50
0.0
 51
0.0
 71
     0
 72
   100
 73
     1
 74
     3
 75
     0
 76
     0
 77
     0
 78
     0
  0
ENDTAB
  0
TABLE
  2
LTYPE
  5
5
330
0
100
AcDbSymbolTable
 70
     1
  0
LTYPE
  5
14
330
5
100
AcDbSymbolTableRecord
100
AcDbLinetypeTableRecord
  2
BYBLOCK
 70
     0
  3

 72
    65
 73
     0
 40
0.0
  0
LTYPE
  5
15
330
5
100
AcDbSymbolTableRecord
100
AcDbLinetypeTableRecord
  2
BYLAYER
 70
     0
  3

 72
    65
 73
     0
 40
0.0
  0
LTYPE
  5
16
330
5
100
AcDbSymbolTableRecord
100
AcDbLinetypeTableRecord
  2
CONTINUOUS
 70
     0
  3
Solid line
 72
    65
 73
     0
 40
0.0
  0
ENDTAB
  0
TABLE
  2
LAYER
  5
2
330
0
100
AcDbSymbolTable
 70
     3
  0
LAYER
  5
10
330
2
100
AcDbSymbolTableRecord
100
AcDbLayerTableRecord
  2
0
 70
     0
 62
     7
  6
CONTINUOUS
  0
LAYER
  5
5D
330
2
100
AcDbSymbolTableRecord
100
AcDbLayerTableRecord
  2
VISIBLE
 70
     0
 62
     7
  6
CONTINUOUS
  0
LAYER
  5
94
330
2
100
AcDbSymbolTableRecord
100
AcDbLayerTableRecord
  2
TANGENT_EDGES
 70
     0
 62
     7
  6
CONTINUOUS
  0
ENDTAB
  0
TABLE
  2
STYLE
  5
3
330
0
100
AcDbSymbolTable
 70
     1
  0
STYLE
  5
11
330
3
100
AcDbSymbolTableRecord
100
AcDbTextStyleTableRecord
  2
STANDARD
 70
     0
 40
0.125
 41
1.0
 50
0.0
 71
     0
 42
0.2
  3
txt
  4

1001
ACAD
1000
Arial
1071
        0
  0
ENDTAB
  0
TABLE
  2
VIEW
  5
6
330
0
100
AcDbSymbolTable
 70
     0
  0
ENDTAB
  0
TABLE
  2
UCS
  5
7
330
0
100
AcDbSymbolTable
 70
     0
  0
ENDTAB
  0
TABLE
  2
APPID
  5
9
330
0
100
AcDbSymbolTable
 70
     1
  0
APPID
  5
12
330
9
100
AcDbSymbolTableRecord
100
AcDbRegAppTableRecord
  2
ACAD
 70
     0
  0
ENDTAB
  0
TABLE
  2
DIMSTYLE
  5
A
330
0
100
AcDbSymbolTable
 70
     1
  0
DIMSTYLE
105
27
330
A
100
AcDbSymbolTableRecord
100
AcDbDimStyleTableRecord
  2
STANDARD
 70
     0
  3

  4

  5

  6

  7

 40
1.0
 41
0.18
 42
0.0625
 43
0.38
 44
0.18
 45
0.0
 46
0.0
 47
0.0
 48
0.0
140
0.18
141
0.09
142
0.0
143
25.4
144
1.0
145
0.0
146
1.0
147
0.09
 71
     0
 72
     0
 73
     1
 74
     1
 75
     0
 76
     0
 77
     0
 78
     0
170
     0
171
     2
172
     0
173
     0
174
     0
175
     0
176
     0
177
     0
178
     0
270
     2
271
     4
272
     4
273
     2
274
     2
340
11
275
     0
280
     0
281
     0
282
     0
283
     1
284
     0
285
     0
286
     0
287
     3
288
     0
  0
ENDTAB
  0
TABLE
  2
BLOCK_RECORD
  5
1
330
0
100
AcDbSymbolTable
 70
     1
  0
BLOCK_RECORD
  5
1F
330
1
100
AcDbSymbolTableRecord
100
AcDbBlockTableRecord
  2
*MODEL_SPACE
  0
BLOCK_RECORD
  5
1B
330
1
100
AcDbSymbolTableRecord
100
AcDbBlockTableRecord
  2
*PAPER_SPACE
  0
ENDTAB
  0
ENDSEC
  0
SECTION
  2
BLOCKS
  0
BLOCK
  5
20
330
1F
100
AcDbEntity
  8
0
100
AcDbBlockBegin
  2
*MODEL_SPACE
 70
     0
 10
0.0
 20
0.0
 30
0.0
  3
*MODEL_SPACE
  1

  0
ENDBLK
  5
21
330
1F
100
AcDbEntity
  8
0
100
AcDbBlockEnd
  0
BLOCK
  5
1C
330
1B
100
AcDbEntity
 67
     1
  8
0
100
AcDbBlockBegin
  2
*PAPER_SPACE
 70
     0
 10
0.0
 20
0.0
 30
0.0
  3
*PAPER_SPACE
  1

  0
ENDBLK
  5
1D
330
1B
100
AcDbEntity
 67
     1
  8
0
100
AcDbBlockEnd
  0
ENDSEC
  0
SECTION
  2
ENTITIES
  0
ARC
  5
5E
330
1F
100
AcDbEntity
  8
VISIBLE
100
AcDbCircle
 10
5.091874625081521
 20
5.667570312664099
 30
0.0
 40
0.0083333333333348
100
AcDbArc
 50
359.9969844326535
 51
30.97835030846555
  0
LINE
  5
5F
330
1F
100
AcDbEntity
  8
VISIBLE
100
AcDbLine
 10
5.100207958403314
 20
5.667569874067606
 30
0.0
 11
5.100207571617406
 21
5.660220941851386
 31
0.0
  0
ARC
  5
60
330
1F
100
AcDbEntity
  8
VISIBLE
100
AcDbCircle
 10
5.091841291748186
 20
5.017570313541287
 30
0.0
 40
0.0125000000000006
100
AcDbArc
 50
344.61648124129
 51
48.19206372063343
  0
LINE
  5
61
330
1F
100
AcDbEntity
  8
VISIBLE
100
AcDbLine
 10
5.100174625069976
 20
5.034236541611462
 30
0.0
 11
5.100174238284071
 21
5.02688760939524
 31
0.0
  0
ARC
  5
62
330
1F
100
AcDbEntity
  8
VISIBLE
100
AcDbCircle
 10
5.091874625081521
 20
5.650903645997433
 30
0.0
 40
0.0124999999999997
100
AcDbArc
 50
234.4556230538022
 51
48.19206372063343
  0
ARC
  5
63
330
1F
100
AcDbEntity
  8
VISIBLE
100
AcDbCircle
 10
5.091841291748186
 20
5.034236980207954
 30
0.0
 40
0.0083333333333348
100
AcDbArc
 50
359.9969844326718
 51
150.2270518685394
  0
CIRCLE
  5
64
330
1F
100
AcDbEntity
  8
VISIBLE
100
AcDbCircle
 10
5.889659950050939
 20
5.455660240592795
 30
0.0
 40
0.0062999999999995
  0
CIRCLE
  5
65
330
1F
100
AcDbEntity
  8
VISIBLE
100
AcDbCircle
 10
5.988216544088654
 20
5.625499506572202
 30
0.0
 40
0.0063000000000004
  0
CIRCLE
  5
66
330
1F
100
AcDbEntity
  8
VISIBLE
100
AcDbCircle
 10
5.889974625081525
 20
5.568993137070692
 30
0.0
 40
0.08951000154378
  0
CIRCLE
  5
67
330
1F
100
AcDbEntity
  8
VISIBLE
100
AcDbCircle
 10
5.889974625081525
 20
5.568993137070692
 30
0.0
 40
0.1333333333333329
  0
CIRCLE
  5
68
330
1F
100
AcDbEntity
  8
VISIBLE
100
AcDbCircle
 10
5.791950238598791
 20
5.625876035195948
 30
0.0
 40
0.0063000000000004
  0
LINE
  5
69
330
1F
100
AcDbEntity
  8
VISIBLE
100
AcDbLine
 10
5.127274625081526
 20
5.052204456738628
 30
0.0
 11
5.127274625081526
 21
5.026136170343938
 31
0.0
  0
LINE
  5
6A
330
1F
100
AcDbEntity
  8
VISIBLE
100
AcDbLine
 10
5.007507958414859
 20
4.948403646874617
 30
0.0
 11
5.001607958414859
 21
4.948403646874617
 31
0.0
  0
LINE
  5
6B
330
1F
100
AcDbEntity
  8
VISIBLE
100
AcDbLine
 10
5.00750795841486
 20
4.942503646874616
 30
0.0
 11
6.070241291748193
 21
4.942503646874616
 31
0.0
  0
LINE
  5
6C
330
1F
100
AcDbEntity
  8
VISIBLE
100
AcDbLine
 10
5.001607958414859
 20
5.738603646874616
 30
0.0
 11
5.001607958414859
 21
4.948403646874617
 31
0.0
  0
LINE
  5
6D
330
1F
100
AcDbEntity
  8
VISIBLE
100
AcDbLine
 10
5.08460795841486
 20
5.026136170343938
 30
0.0
 11
5.08460795841486
 21
5.052204456738628
 31
0.0
  0
LINE
  5
6E
330
1F
100
AcDbEntity
  8
VISIBLE
100
AcDbLine
 10
6.070241291748193
 20
5.738603646874616
 30
0.0
 11
6.070241291748193
 21
5.744503646874616
 31
0.0
  0
LINE
  5
6F
330
1F
100
AcDbEntity
  8
VISIBLE
100
AcDbLine
 10
6.070241291748193
 20
5.738603646874616
 30
0.0
 11
6.070241291748193
 21
4.948403646874616
 31
0.0
  0
LINE
  5
70
330
1F
100
AcDbEntity
  8
VISIBLE
100
AcDbLine
 10
5.127274625081526
 20
5.660871123405295
 30
0.0
 11
5.127274625081526
 21
5.634802837010605
 31
0.0
  0
LINE
  5
71
330
1F
100
AcDbEntity
  8
VISIBLE
100
AcDbLine
 10
5.08460795841486
 20
5.634802837010605
 30
0.0
 11
5.08460795841486
 21
5.660871123405295
 31
0.0
  0
LINE
  5
72
330
1F
100
AcDbEntity
  8
VISIBLE
100
AcDbLine
 10
5.007507958414859
 20
4.948403646874617
 30
0.0
 11
5.007507958414859
 21
4.942503646874616
 31
0.0
  0
LINE
  5
73
330
1F
100
AcDbEntity
  8
VISIBLE
100
AcDbLine
 10
5.001607958414859
 20
5.738603646874616
 30
0.0
 11
5.00750795841486
 21
5.738603646874616
 31
0.0
  0
ARC
  5
74
330
1F
100
AcDbEntity
  8
VISIBLE
100
AcDbCircle
 10
5.105941291748192
 20
5.039170313541283
 30
0.0
 40
0.0249999999999996
100
AcDbArc
 50
211.4239064858467
 51
328.5760935141544
  0
LINE
  5
75
330
1F
100
AcDbEntity
  8
VISIBLE
100
AcDbLine
 10
6.070241291748193
 20
5.744503646874616
 30
0.0
 11
5.00750795841486
 21
5.744503646874617
 31
0.0
  0
ARC
  5
76
330
1F
100
AcDbEntity
  8
VISIBLE
100
AcDbCircle
 10
5.105941291748193
 20
5.64783698020795
 30
0.0
 40
0.0250000000000003
100
AcDbArc
 50
211.4239064858457
 51
328.5760935141533
  0
LINE
  5
77
330
1F
100
AcDbEntity
  8
VISIBLE
100
AcDbLine
 10
6.070241291748193
 20
4.948403646874616
 30
0.0
 11
6.070241291748193
 21
4.942503646874616
 31
0.0
  0
LINE
  5
78
330
1F
100
AcDbEntity
  8
VISIBLE
100
AcDbLine
 10
5.00750795841486
 20
5.738603646874616
 30
0.0
 11
5.00750795841486
 21
5.744503646874617
 31
0.0
  0
ARC
  5
79
330
1F
100
AcDbEntity
  8
VISIBLE
100
AcDbCircle
 10
5.105941291748193
 20
5.64783698020795
 30
0.0
 40
0.0249999999999996
100
AcDbArc
 50
31.42390648584672
 51
148.5760935141543
  0
ARC
  5
7A
330
1F
100
AcDbEntity
  8
VISIBLE
100
AcDbCircle
 10
5.105941291748192
 20
5.039170313541283
 30
0.0
 40
0.0250000000000003
100
AcDbArc
 50
31.42390648584566
 51
148.5760935141533
  0
LINE
  5
7B
330
1F
100
AcDbEntity
  8
VISIBLE
100
AcDbLine
 10
6.074641291748197
 20
5.729970313541282
 30
0.0
 11
6.082841291748196
 21
5.729970313541282
 31
0.0
  0
LINE
  5
7C
330
1F
100
AcDbEntity
  8
VISIBLE
100
AcDbLine
 10
6.070241291748195
 20
4.953303646874615
 30
0.0
 11
6.074641291748194
 21
4.953303646874615
 31
0.0
  0
LINE
  5
7D
330
1F
100
AcDbEntity
  8
VISIBLE
100
AcDbLine
 10
6.074641291748197
 20
5.729970313541282
 30
0.0
 11
6.070241291748195
 21
5.729970313541282
 31
0.0
  0
LINE
  5
7E
330
1F
100
AcDbEntity
  8
VISIBLE
100
AcDbLine
 10
6.082841291748194
 20
4.953303646874615
 30
0.0
 11
6.074641291748194
 21
4.953303646874615
 31
0.0
  0
LINE
  5
7F
330
1F
100
AcDbEntity
  8
VISIBLE
100
AcDbLine
 10
6.082841291748196
 20
5.729970313541283
 30
0.0
 11
6.082841291748193
 21
4.953303646874615
 31
0.0
  0
CIRCLE
  5
80
330
1F
100
AcDbEntity
  8
VISIBLE
100
AcDbCircle
 10
5.889974625081525
 20
5.352326470404028
 30
0.0
 40
0.0353909316786352
  0
CIRCLE
  5
81
330
1F
100
AcDbEntity
  8
VISIBLE
100
AcDbCircle
 10
5.889974625081525
 20
5.352326470404028
 30
0.0
 40
0.0388999999999999
  0
LINE
  5
82
330
1F
100
AcDbEntity
  8
VISIBLE
100
AcDbLine
 10
5.226900964243799
 20
2.719303646874615
 30
0.0
 11
5.207131579587119
 21
2.719303646874615
 31
0.0
  0
LINE
  5
83
330
1F
100
AcDbEntity
  8
VISIBLE
100
AcDbLine
 10
5.207131579587119
 20
2.735970313541281
 30
0.0
 11
5.226900964243799
 21
2.735970313541282
 31
0.0
  0
LINE
  5
84
330
1F
100
AcDbEntity
  8
VISIBLE
100
AcDbLine
 10
5.2269009642438
 20
2.719303646874615
 30
0.0
 11
5.865718624004614
 21
2.719303646874621
 31
0.0
  0
LINE
  5
85
330
1F
100
AcDbEntity
  8
VISIBLE
100
AcDbLine
 10
5.207131579587119
 20
2.719303646874615
 30
0.0
 11
5.206440936423654
 21
2.719303646874615
 31
0.0
  0
LINE
  5
86
330
1F
100
AcDbEntity
  8
VISIBLE
100
AcDbLine
 10
5.885243196222101
 20
2.735970313541287
 30
0.0
 11
5.865718624004614
 21
2.735970313541287
 31
0.0
  0
LINE
  5
87
330
1F
100
AcDbEntity
  8
VISIBLE
100
AcDbLine
 10
5.206440936423654
 20
2.735970313541281
 30
0.0
 11
5.207131579587119
 21
2.735970313541281
 31
0.0
  0
LINE
  5
88
330
1F
100
AcDbEntity
  8
VISIBLE
100
AcDbLine
 10
5.865718624004614
 20
2.719303646874621
 30
0.0
 11
5.885243196222101
 21
2.719303646874621
 31
0.0
  0
LINE
  5
89
330
1F
100
AcDbEntity
  8
VISIBLE
100
AcDbLine
 10
5.865718624004614
 20
2.735970313541287
 30
0.0
 11
5.2269009642438
 21
2.735970313541282
 31
0.0
  0
LINE
  5
8A
330
1F
100
AcDbEntity
  8
VISIBLE
100
AcDbLine
 10
5.885243196222102
 20
2.719303646874619
 30
0.0
 11
5.885243196222102
 21
2.735970313541286
 31
0.0
  0
LINE
  5
8B
330
1F
100
AcDbEntity
  8
VISIBLE
100
AcDbLine
 10
5.207131579587119
 20
2.735970313541281
 30
0.0
 11
5.20713157958712
 21
2.719303646874614
 31
0.0
  0
LINE
  5
8C
330
1F
100
AcDbEntity
  8
VISIBLE
100
AcDbLine
 10
5.206440936423654
 20
2.719303646874615
 30
0.0
 11
5.206440936423654
 21
2.735970313541281
 31
0.0
  0
LINE
  5
8D
330
1F
100
AcDbEntity
  8
VISIBLE
100
AcDbLine
 10
5.645583064469415
 20
4.935970313541284
 30
0.0
 11
5.645583064469433
 21
2.735970313541284
 31
0.0
  0
LINE
  5
8E
330
1F
100
AcDbEntity
  8
VISIBLE
100
AcDbLine
 10
5.445583064469416
 20
4.935970313541282
 30
0.0
 11
5.445583064469433
 21
2.735970313541282
 31
0.0
  0
LINE
  5
8F
330
1F
100
AcDbEntity
  8
VISIBLE
100
AcDbLine
 10
5.86224973113608
 20
4.935970313541284
 30
0.0
 11
5.895583064469413
 21
4.935970313541285
 31
0.0
  0
LINE
  5
90
330
1F
100
AcDbEntity
  8
VISIBLE
100
AcDbLine
 10
5.195583064469413
 20
4.942503646874616
 30
0.0
 11
5.195583064469413
 21
4.935970313541279
 31
0.0
  0
LINE
  5
91
330
1F
100
AcDbEntity
  8
VISIBLE
100
AcDbLine
 10
5.228916397802746
 20
4.935970313541279
 30
0.0
 11
5.195583064469413
 21
4.935970313541279
 31
0.0
  0
LINE
  5
92
330
1F
100
AcDbEntity
  8
VISIBLE
100
AcDbLine
 10
5.228916397802746
 20
4.935970313541279
 30
0.0
 11
5.86224973113608
 21
4.935970313541284
 31
0.0
  0
LINE
  5
93
330
1F
100
AcDbEntity
  8
VISIBLE
100
AcDbLine
 10
5.895583064469413
 20
4.935970313541285
 30
0.0
 11
5.895583064469413
 21
4.942503646874616
 31
0.0
  0
CIRCLE
  5
95
330
1F
100
AcDbEntity
  8
TANGENT_EDGES
100
AcDbCircle
 10
5.889659950050939
 20
5.455660240592795
 30
0.0
 40
0.0081999999999995
  0
CIRCLE
  5
96
330
1F
100
AcDbEntity
  8
TANGENT_EDGES
100
AcDbCircle
 10
5.988216544088654
 20
5.625499506572202
 30
0.0
 40
0.0082000000000004
  0
CIRCLE
  5
97
330
1F
100
AcDbEntity
  8
TANGENT_EDGES
100
AcDbCircle
 10
5.791950238598791
 20
5.625876035195948
 30
0.0
 40
0.0082000000000004
  0
LINE
  5
98
330
1F
100
AcDbEntity
  8
TANGENT_EDGES
100
AcDbLine
 10
5.00750795841486
 20
5.738603646874616
 30
0.0
 11
6.070241291748193
 21
5.738603646874616
 31
0.0
  0
LINE
  5
99
330
1F
100
AcDbEntity
  8
TANGENT_EDGES
100
AcDbLine
 10
6.070241291748193
 20
4.948403646874616
 30
0.0
 11
5.007507958414859
 21
4.948403646874617
 31
0.0
  0
LINE
  5
9A
330
1F
100
AcDbEntity
  8
TANGENT_EDGES
100
AcDbLine
 10
5.007507958414859
 20
4.948403646874617
 30
0.0
 11
5.00750795841486
 21
5.738603646874616
 31
0.0
  0
LINE
  5
9B
330
1F
100
AcDbEntity
  8
TANGENT_EDGES
100
AcDbLine
 10
6.074641291748197
 20
5.729970313541282
 30
0.0
 11
6.074641291748194
 21
4.953303646874615
 31
0.0
  0
LINE
  5
9C
330
1F
100
AcDbEntity
  8
TANGENT_EDGES
100
AcDbLine
 10
5.865718624004614
 20
2.735970313541287
 30
0.0
 11
5.865718624004614
 21
2.719303646874621
 31
0.0
  0
LINE
  5
9D
330
1F
100
AcDbEntity
  8
TANGENT_EDGES
100
AcDbLine
 10
5.2269009642438
 20
2.719303646874615
 30
0.0
 11
5.226900964243799
 21
2.735970313541282
 31
0.0
  0
LINE
  5
9E
330
1F
100
AcDbEntity
  8
TANGENT_EDGES
100
AcDbLine
 10
5.86224973113608
 20
4.942503646874616
 30
0.0
 11
5.86224973113608
 21
4.935970313541284
 31
0.0
  0
LINE
  5
9F
330
1F
100
AcDbEntity
  8
TANGENT_EDGES
100
AcDbLine
 10
5.228916397802746
 20
4.935970313541279
 30
0.0
 11
5.228916397802746
 21
4.942503646874616
 31
0.0
  0
LINE
  5
A0
330
1F
100
AcDbEntity
  8
VISIBLE
100
AcDbLine
 10
6.064341291748198
 20
7.00696620301516
 30
0.0
 11
5.019407958414858
 21
7.006966203015156
 31
0.0
  0
ARC
  5
A1
330
1F
100
AcDbEntity
  8
VISIBLE
100
AcDbCircle
 10
6.064341291748198
 20
7.00106620301516
 30
0.0
 40
0.0019666666666662
100
AcDbArc
 50
0.0
 51
90.0
  0
LINE
  5
A2
330
1F
100
AcDbEntity
  8
VISIBLE
100
AcDbLine
 10
6.066307958414865
 20
7.001066203015161
 30
0.0
 11
6.066307958414864
 21
6.471619807062165
 31
0.0
  0
ARC
  5
A3
330
1F
100
AcDbEntity
  8
VISIBLE
100
AcDbCircle
 10
5.019407958414862
 20
7.00106620301515
 30
0.0
 40
0.0019666666666724
100
AcDbArc
 50
90.00000000012938
 51
179.9999999998189
  0
LINE
  5
A4
330
1F
100
AcDbEntity
  8
VISIBLE
100
AcDbLine
 10
6.064341291748198
 20
7.001066203015161
 30
0.0
 11
6.064341291748198
 21
7.00696620301516
 31
0.0
  0
LINE
  5
A5
330
1F
100
AcDbEntity
  8
VISIBLE
100
AcDbLine
 10
5.017441291748199
 20
6.477532869681824
 30
0.0
 11
5.017441291748191
 21
7.001066203015156
 31
0.0
  0
LINE
  5
A6
330
1F
100
AcDbEntity
  8
VISIBLE
100
AcDbLine
 10
5.01940795841486
 20
6.477532869681824
 30
0.0
 11
5.019407958414858
 21
7.001066203015156
 31
0.0
  0
LINE
  5
A7
330
1F
100
AcDbEntity
  8
VISIBLE
100
AcDbLine
 10
6.064341291748198
 20
7.001066203015161
 30
0.0
 11
6.0643412917482
 21
6.473588493165378
 31
0.0
  0
LINE
  5
A8
330
1F
100
AcDbEntity
  8
VISIBLE
100
AcDbLine
 10
6.070241291748198
 20
6.46086620301515
 30
0.0
 11
6.070241291748198
 21
7.001066203015161
 31
0.0
  0
ARC
  5
A9
330
1F
100
AcDbEntity
  8
VISIBLE
100
AcDbCircle
 10
6.064341291748198
 20
7.00106620301516
 30
0.0
 40
0.0059000000000005
100
AcDbArc
 50
0.0
 51
90.0
  0
LINE
  5
AA
330
1F
100
AcDbEntity
  8
VISIBLE
100
AcDbLine
 10
5.019407958414858
 20
7.006966203015156
 30
0.0
 11
5.019407958414858
 21
7.001066203015156
 31
0.0
  0
ARC
  5
AB
330
1F
100
AcDbEntity
  8
VISIBLE
100
AcDbCircle
 10
5.019407958414858
 20
7.001066203015156
 30
0.0
 40
0.0058999999999996
100
AcDbArc
 50
90.0
 51
180.0
  0
LINE
  5
AC
330
1F
100
AcDbEntity
  8
VISIBLE
100
AcDbLine
 10
5.013507958414857
 20
7.001066203015156
 30
0.0
 11
5.013507958414865
 21
6.477532869681824
 31
0.0
  0
LINE
  5
AD
330
1F
100
AcDbEntity
  8
VISIBLE
100
AcDbLine
 10
6.023307958414859
 20
6.390266203015155
 30
0.0
 11
6.023307912913053
 21
6.390266203015155
 31
0.0
  0
LINE
  5
AE
330
1F
100
AcDbEntity
  8
VISIBLE
100
AcDbLine
 10
6.023307912913053
 20
6.390266203015155
 30
0.0
 11
5.756641291748192
 21
6.390266203015156
 31
0.0
  0
LINE
  5
AF
330
1F
100
AcDbEntity
  8
VISIBLE
100
AcDbLine
 10
5.756641291748193
 20
6.390266203015155
 30
0.0
 11
5.756641291748193
 21
6.406932869681823
 31
0.0
  0
LINE
  5
B0
330
1F
100
AcDbEntity
  8
VISIBLE
100
AcDbLine
 10
6.023307958414859
 20
6.390266203015154
 30
0.0
 11
6.023307958414859
 21
6.406932869681821
 31
0.0
  0
LINE
  5
B1
330
1F
100
AcDbEntity
  8
VISIBLE
100
AcDbLine
 10
5.956895681699475
 20
6.390266203015155
 30
0.0
 11
5.756641291748194
 21
6.390266203015157
 31
0.0
  0
LINE
  5
B2
330
1F
100
AcDbEntity
  8
VISIBLE
100
AcDbLine
 10
6.02330795841486
 20
6.390266203015154
 30
0.0
 11
5.956895681699475
 21
6.390266203015155
 31
0.0
  0
LINE
  5
B3
330
1F
100
AcDbEntity
  8
VISIBLE
100
AcDbLine
 10
6.02330795841486
 20
6.385266203015155
 30
0.0
 11
5.956895681699475
 21
6.385266203015155
 31
0.0
  0
LINE
  5
B4
330
1F
100
AcDbEntity
  8
VISIBLE
100
AcDbLine
 10
5.756641291748194
 20
6.385266203015156
 30
0.0
 11
5.956895681699475
 21
6.385266203015155
 31
0.0
  0
LINE
  5
B5
330
1F
100
AcDbEntity
  8
VISIBLE
100
AcDbLine
 10
5.756641291748193
 20
6.390266203015156
 30
0.0
 11
5.756641291748193
 21
6.385266203015156
 31
0.0
  0
LINE
  5
B6
330
1F
100
AcDbEntity
  8
VISIBLE
100
AcDbLine
 10
6.023307958414859
 20
6.390266203015154
 30
0.0
 11
6.023307958414859
 21
6.385266203015155
 31
0.0
  0
ARC
  5
B7
330
1F
100
AcDbEntity
  8
VISIBLE
100
AcDbCircle
 10
6.053574625081527
 20
6.460866203015154
 30
0.0
 40
0.0166666666666657
100
AcDbArc
 50
0.0
 51
90.0
  0
ARC
  5
B8
330
1F
100
AcDbEntity
  8
VISIBLE
100
AcDbCircle
 10
5.007507958414858
 20
6.412832869681827
 30
0.0
 40
0.0019666666666653
100
AcDbArc
 50
179.9999999999482
 51
270.0000000000518
  0
LINE
  5
B9
330
1F
100
AcDbEntity
  8
VISIBLE
100
AcDbLine
 10
5.00750795841486
 20
6.406932869681829
 30
0.0
 11
6.070241291748193
 21
6.406932869681821
 31
0.0
  0
LINE
  5
BA
330
1F
100
AcDbEntity
  8
VISIBLE
100
AcDbLine
 10
6.070241291748193
 20
6.406932869681821
 30
0.0
 11
6.070241291748193
 21
6.412832869681822
 31
0.0
  0
LINE
  5
BB
330
1F
100
AcDbEntity
  8
VISIBLE
100
AcDbLine
 10
5.00160795841486
 20
6.477532869681829
 30
0.0
 11
5.001607958414859
 21
6.412832869681829
 31
0.0
  0
LINE
  5
BC
330
1F
100
AcDbEntity
  8
VISIBLE
100
AcDbLine
 10
5.00750795841486
 20
6.412832869681829
 30
0.0
 11
5.00750795841486
 21
6.477532869681829
 31
0.0
  0
ARC
  5
BD
330
1F
100
AcDbEntity
  8
VISIBLE
100
AcDbCircle
 10
5.00750795841486
 20
6.412832869681829
 30
0.0
 40
0.0059000000000005
100
AcDbArc
 50
180.0
 51
270.0
  0
LINE
  5
BE
330
1F
100
AcDbEntity
  8
VISIBLE
100
AcDbLine
 10
5.00750795841486
 20
6.477532869681829
 30
0.0
 11
6.053574625081527
 21
6.477532869681822
 31
0.0
  0
LINE
  5
BF
330
1F
100
AcDbEntity
  8
VISIBLE
100
AcDbLine
 10
5.005541291748193
 20
6.412832869681829
 30
0.0
 11
5.005541291748194
 21
6.477532869681829
 31
0.0
  0
LINE
  5
C0
330
1F
100
AcDbEntity
  8
VISIBLE
100
AcDbLine
 10
5.00750795841486
 20
6.406932869681829
 30
0.0
 11
5.00750795841486
 21
6.412832869681829
 31
0.0
  0
LINE
  5
C1
330
1F
100
AcDbEntity
  8
VISIBLE
100
AcDbLine
 10
6.070241291748193
 20
6.460866203015154
 30
0.0
 11
6.070241291748193
 21
6.412832869681822
 31
0.0
  0
LINE
  5
C2
330
1F
100
AcDbEntity
  8
VISIBLE
100
AcDbLine
 10
5.005541291748194
 20
6.477532869681829
 30
0.0
 11
5.00160795841486
 21
6.477532869681829
 31
0.0
  0
CIRCLE
  5
C3
330
1F
100
AcDbEntity
  8
VISIBLE
100
AcDbCircle
 10
6.074641291748192
 20
6.419066203015155
 30
0.0
 40
0.0041666666666673
  0
LINE
  5
C4
330
1F
100
AcDbEntity
  8
VISIBLE
100
AcDbLine
 10
6.07024129174819
 20
6.427266203015154
 30
0.0
 11
6.074641291748192
 21
6.427266203015154
 31
0.0
  0
ARC
  5
C5
330
1F
100
AcDbEntity
  8
VISIBLE
100
AcDbCircle
 10
6.074641291748192
 20
6.419066203015155
 30
0.0
 40
0.0082000000000004
100
AcDbArc
 50
270.0
 51
90.0
  0
LINE
  5
C6
330
1F
100
AcDbEntity
  8
VISIBLE
100
AcDbLine
 10
6.074641291748192
 20
6.410866203015154
 30
0.0
 11
6.07024129174819
 21
6.410866203015154
 31
0.0
  0
LINE
  5
C7
330
1F
100
AcDbEntity
  8
VISIBLE
100
AcDbLine
 10
5.851074625081527
 20
6.373266203015154
 30
0.0
 11
5.928874625081527
 21
6.373266203015153
 31
0.0
  0
LINE
  5
C8
330
1F
100
AcDbEntity
  8
VISIBLE
100
AcDbLine
 10
5.928874625081525
 20
6.385266203015155
 30
0.0
 11
5.928874625081525
 21
6.373266203015153
 31
0.0
  0
LINE
  5
C9
330
1F
100
AcDbEntity
  8
VISIBLE
100
AcDbLine
 10
5.851074625081525
 20
6.385266203015155
 30
0.0
 11
5.851074625081525
 21
6.373266203015154
 31
0.0
  0
ELLIPSE
  5
CA
330
1F
100
AcDbEntity
  8
VISIBLE
100
AcDbEllipse
 10
5.545842066322876
 20
6.725979997778714
 30
0.0
 11
0.3999986583585473
 21
0.001036007413787843
 31
0.0
210
0.0
220
0.0
230
0.9999999999999997
 40
0.7500000000000016
 41
1.209396458604098
 42
1.925289483183712
  0
LINE
  5
CB
330
1F
100
AcDbEntity
  8
TANGENT_EDGES
100
AcDbLine
 10
5.019407958414858
 20
7.001066203015156
 30
0.0
 11
6.064341291748198
 21
7.001066203015161
 31
0.0
  0
LINE
  5
CC
330
1F
100
AcDbEntity
  8
TANGENT_EDGES
100
AcDbLine
 10
6.070241291748193
 20
6.412832869681822
 30
0.0
 11
5.00750795841486
 21
6.412832869681829
 31
0.0
  0
LINE
  5
CD
330
1F
100
AcDbEntity
  8
VISIBLE
100
AcDbLine
 10
7.228602194184136
 20
5.281836980207953
 30
0.0
 11
7.081935527517468
 21
5.281836980207953
 31
0.0
  0
LINE
  5
CE
330
1F
100
AcDbEntity
  8
VISIBLE
100
AcDbLine
 10
6.885268860850798
 20
5.081836980207952
 30
0.0
 11
6.885268860850798
 21
5.085170313541285
 31
0.0
  0
LINE
  5
CF
330
1F
100
AcDbEntity
  8
VISIBLE
100
AcDbLine
 10
7.081935527517468
 20
5.085170313541285
 30
0.0
 11
7.228602194184136
 21
5.085170313541285
 31
0.0
  0
LINE
  5
D0
330
1F
100
AcDbEntity
  8
VISIBLE
100
AcDbLine
 10
7.081935527517468
 20
5.281836980207953
 30
0.0
 11
7.081935527517468
 21
5.285170313541286
 31
0.0
  0
ARC
  5
D1
330
1F
100
AcDbEntity
  8
VISIBLE
100
AcDbCircle
 10
6.768135527517479
 20
4.954403646874629
 30
0.0
 40
0.0019666666666769
100
AcDbArc
 50
180.0000000002588
 51
269.9999999996895
  0
ARC
  5
D2
330
1F
100
AcDbEntity
  8
VISIBLE
100
AcDbCircle
 10
7.336035527517473
 20
5.730736980207956
 30
0.0
 40
0.0059000000000005
100
AcDbArc
 50
0.0
 51
89.99999999999137
  0
LINE
  5
D3
330
1F
100
AcDbEntity
  8
VISIBLE
100
AcDbLine
 10
7.341935527517473
 20
4.954403646874618
 30
0.0
 11
7.341935527517474
 21
5.730736980207956
 31
0.0
  0
LINE
  5
D4
330
1F
100
AcDbEntity
  8
VISIBLE
100
AcDbLine
 10
6.762235527517469
 20
5.730736980207956
 30
0.0
 11
6.762235527517469
 21
5.729970313541289
 31
0.0
  0
ARC
  5
D5
330
1F
100
AcDbEntity
  8
VISIBLE
100
AcDbCircle
 10
7.336035527517471
 20
5.730736980207954
 30
0.0
 40
0.0019666666666689
100
AcDbArc
 50
0.0000000000517514
 51
89.99999999994824
  0
LINE
  5
D6
330
1F
100
AcDbEntity
  8
VISIBLE
100
AcDbLine
 10
7.081935527517468
 20
5.285170313541286
 30
0.0
 11
7.228602194184136
 21
5.285170313541286
 31
0.0
  0
LINE
  5
D7
330
1F
100
AcDbEntity
  8
VISIBLE
100
AcDbLine
 10
6.762235527517469
 20
4.954403646874618
 30
0.0
 11
6.768135527517469
 21
4.954403646874618
 31
0.0
  0
LINE
  5
D8
330
1F
100
AcDbEntity
  8
VISIBLE
100
AcDbLine
 10
7.336035527517473
 20
4.954403646874618
 30
0.0
 11
6.768135527517469
 21
4.954403646874618
 31
0.0
  0
LINE
  5
D9
330
1F
100
AcDbEntity
  8
VISIBLE
100
AcDbLine
 10
6.76813552751747
 20
5.732703646874621
 30
0.0
 11
7.336035527517473
 21
5.732703646874623
 31
0.0
  0
LINE
  5
DA
330
1F
100
AcDbEntity
  8
VISIBLE
100
AcDbLine
 10
7.081935527517468
 20
5.081836980207952
 30
0.0
 11
7.081935527517468
 21
5.085170313541285
 31
0.0
  0
LINE
  5
DB
330
1F
100
AcDbEntity
  8
VISIBLE
100
AcDbLine
 10
7.081935527517468
 20
5.181836980207953
 30
0.0
 11
7.081935527517468
 21
5.185170313541286
 31
0.0
  0
LINE
  5
DC
330
1F
100
AcDbEntity
  8
VISIBLE
100
AcDbLine
 10
6.885268860850799
 20
5.285170313541286
 30
0.0
 11
7.031935527517466
 21
5.285170313541286
 31
0.0
  0
LINE
  5
DD
330
1F
100
AcDbEntity
  8
VISIBLE
100
AcDbLine
 10
7.336035527517473
 20
5.736636980207956
 30
0.0
 11
6.76813552751747
 21
5.736636980207955
 31
0.0
  0
LINE
  5
DE
330
1F
100
AcDbEntity
  8
VISIBLE
100
AcDbLine
 10
6.885268860850799
 20
5.181836980207953
 30
0.0
 11
6.885268860850799
 21
5.185170313541286
 31
0.0
  0
LINE
  5
DF
330
1F
100
AcDbEntity
  8
VISIBLE
100
AcDbLine
 10
7.341935527517473
 20
4.954403646874618
 30
0.0
 11
7.336035527517473
 21
4.954403646874618
 31
0.0
  0
LINE
  5
E0
330
1F
100
AcDbEntity
  8
VISIBLE
100
AcDbLine
 10
7.228602194184136
 20
5.185170313541286
 30
0.0
 11
7.228602194184136
 21
5.181836980207953
 31
0.0
  0
LINE
  5
E1
330
1F
100
AcDbEntity
  8
VISIBLE
100
AcDbLine
 10
6.76813552751747
 20
5.730736980207956
 30
0.0
 11
7.336035527517473
 21
5.730736980207956
 31
0.0
  0
LINE
  5
E2
330
1F
100
AcDbEntity
  8
VISIBLE
100
AcDbLine
 10
7.031935527517466
 20
5.081836980207952
 30
0.0
 11
6.885268860850798
 21
5.081836980207952
 31
0.0
  0
LINE
  5
E3
330
1F
100
AcDbEntity
  8
VISIBLE
100
AcDbLine
 10
7.031935527517466
 20
5.285170313541286
 30
0.0
 11
7.031935527517466
 21
5.281836980207953
 31
0.0
  0
ARC
  5
E4
330
1F
100
AcDbEntity
  8
VISIBLE
100
AcDbCircle
 10
7.336035527517473
 20
4.954403646874618
 30
0.0
 40
0.0059000000000005
100
AcDbArc
 50
269.9999999999914
 51
0.0
  0
LINE
  5
E5
330
1F
100
AcDbEntity
  8
VISIBLE
100
AcDbLine
 10
7.228602194184136
 20
5.081836980207952
 30
0.0
 11
7.081935527517468
 21
5.081836980207952
 31
0.0
  0
LINE
  5
E6
330
1F
100
AcDbEntity
  8
VISIBLE
100
AcDbLine
 10
7.031935527517466
 20
5.085170313541285
 30
0.0
 11
7.031935527517466
 21
5.081836980207952
 31
0.0
  0
LINE
  5
E7
330
1F
100
AcDbEntity
  8
VISIBLE
100
AcDbLine
 10
6.885268860850799
 20
5.185170313541286
 30
0.0
 11
7.031935527517466
 21
5.185170313541286
 31
0.0
  0
LINE
  5
E8
330
1F
100
AcDbEntity
  8
VISIBLE
100
AcDbLine
 10
6.762235527517469
 20
5.730736980207956
 30
0.0
 11
6.76813552751747
 21
5.730736980207956
 31
0.0
  0
LINE
  5
E9
330
1F
100
AcDbEntity
  8
VISIBLE
100
AcDbLine
 10
7.336035527517473
 20
5.730736980207956
 30
0.0
 11
7.341935527517474
 21
5.730736980207956
 31
0.0
  0
ARC
  5
EA
330
1F
100
AcDbEntity
  8
VISIBLE
100
AcDbCircle
 10
6.768135527517462
 20
5.730736980207963
 30
0.0
 40
0.0019666666666582
100
AcDbArc
 50
89.99999999976711
 51
180.0000000002588
  0
LINE
  5
EB
330
1F
100
AcDbEntity
  8
VISIBLE
100
AcDbLine
 10
6.885268860850799
 20
5.281836980207953
 30
0.0
 11
6.885268860850799
 21
5.285170313541286
 31
0.0
  0
LINE
  5
EC
330
1F
100
AcDbEntity
  8
VISIBLE
100
AcDbLine
 10
7.031935527517466
 20
5.281836980207953
 30
0.0
 11
6.885268860850799
 21
5.281836980207953
 31
0.0
  0
LINE
  5
ED
330
1F
100
AcDbEntity
  8
VISIBLE
100
AcDbLine
 10
7.228602194184136
 20
5.085170313541285
 30
0.0
 11
7.228602194184136
 21
5.081836980207952
 31
0.0
  0
LINE
  5
EE
330
1F
100
AcDbEntity
  8
VISIBLE
100
AcDbLine
 10
7.228602194184136
 20
5.285170313541286
 30
0.0
 11
7.228602194184136
 21
5.281836980207953
 31
0.0
  0
LINE
  5
EF
330
1F
100
AcDbEntity
  8
VISIBLE
100
AcDbLine
 10
7.228602194184136
 20
5.181836980207953
 30
0.0
 11
7.081935527517468
 21
5.181836980207953
 31
0.0
  0
LINE
  5
F0
330
1F
100
AcDbEntity
  8
VISIBLE
100
AcDbLine
 10
6.885268860850798
 20
5.085170313541285
 30
0.0
 11
7.031935527517466
 21
5.085170313541285
 31
0.0
  0
LINE
  5
F1
330
1F
100
AcDbEntity
  8
VISIBLE
100
AcDbLine
 10
7.031935527517466
 20
5.181836980207953
 30
0.0
 11
6.885268860850799
 21
5.181836980207953
 31
0.0
  0
LINE
  5
F2
330
1F
100
AcDbEntity
  8
VISIBLE
100
AcDbLine
 10
6.768135527517469
 20
4.948503646874619
 30
0.0
 11
7.336035527517473
 21
4.948503646874618
 31
0.0
  0
LINE
  5
F3
330
1F
100
AcDbEntity
  8
VISIBLE
100
AcDbLine
 10
7.081935527517468
 20
5.185170313541286
 30
0.0
 11
7.228602194184136
 21
5.185170313541286
 31
0.0
  0
ARC
  5
F4
330
1F
100
AcDbEntity
  8
VISIBLE
100
AcDbCircle
 10
7.336035527517473
 20
4.954403646874618
 30
0.0
 40
0.0019666666666671
100
AcDbArc
 50
270.0
 51
0.0
  0
LINE
  5
F5
330
1F
100
AcDbEntity
  8
VISIBLE
100
AcDbLine
 10
7.336035527517473
 20
4.952436980207951
 30
0.0
 11
6.768135527517469
 21
4.952436980207953
 31
0.0
  0
ARC
  5
F6
330
1F
100
AcDbEntity
  8
VISIBLE
100
AcDbCircle
 10
6.76813552751747
 20
5.730736980207954
 30
0.0
 40
0.0059000000000005
100
AcDbArc
 50
90.0
 51
180.0
  0
ARC
  5
F7
330
1F
100
AcDbEntity
  8
VISIBLE
100
AcDbCircle
 10
6.768135527517469
 20
4.95440364687462
 30
0.0
 40
0.0058999999999996
100
AcDbArc
 50
180.0
 51
270.0
  0
LINE
  5
F8
330
1F
100
AcDbEntity
  8
VISIBLE
100
AcDbLine
 10
7.031935527517466
 20
5.185170313541286
 30
0.0
 11
7.031935527517466
 21
5.181836980207953
 31
0.0
  0
LINE
  5
F9
330
1F
100
AcDbEntity
  8
VISIBLE
100
AcDbLine
 10
7.124602194184133
 20
4.954403646874615
 30
0.0
 11
7.124602194184133
 21
4.952436980207951
 31
0.0
  0
ARC
  5
FA
330
1F
100
AcDbEntity
  8
VISIBLE
100
AcDbCircle
 10
6.991935527517467
 20
5.169103646874618
 30
0.0
 40
0.175666666666666
100
AcDbArc
 50
39.92211774177096
 51
41.35488833324049
  0
ARC
  5
FB
330
1F
100
AcDbEntity
  8
VISIBLE
100
AcDbCircle
 10
6.991935527517467
 20
5.169103646874618
 30
0.0
 40
0.1756666666666668
100
AcDbArc
 50
4.15677412132236
 51
5.247668708613952
  0
ARC
  5
FC
330
1F
100
AcDbEntity
  8
VISIBLE
100
AcDbCircle
 10
6.991935527517467
 20
5.169103646874618
 30
0.0
 40
0.1756666666666665
100
AcDbArc
 50
330.213189138926
 51
331.4582593966953
  0
LINE
  5
FD
330
1F
100
AcDbEntity
  8
VISIBLE
100
AcDbLine
 10
6.8592688608508
 20
4.954403646874615
 30
0.0
 11
6.8592688608508
 21
4.952436980207951
 31
0.0
  0
LINE
  5
FE
330
1F
100
AcDbEntity
  8
VISIBLE
100
AcDbLine
 10
7.141935527517463
 20
5.281836980207949
 30
0.0
 11
7.141935527517463
 21
5.285170313541283
 31
0.0
  0
LINE
  5
FF
330
1F
100
AcDbEntity
  8
VISIBLE
100
AcDbLine
 10
6.725235527517469
 20
5.569103290657836
 30
0.0
 11
6.725235527517469
 21
5.435659803737361
 31
0.0
  0
LINE
  5
100
330
1F
100
AcDbEntity
  8
VISIBLE
100
AcDbLine
 10
6.725235527517469
 20
5.569103290657836
 30
0.0
 11
6.725235527517469
 21
5.702326470404029
 31
0.0
  0
LINE
  5
101
330
1F
100
AcDbEntity
  8
VISIBLE
100
AcDbLine
 10
6.725235527517468
 20
5.702326470404028
 30
0.0
 11
6.741902194184135
 21
5.702326470404028
 31
0.0
  0
LINE
  5
102
330
1F
100
AcDbEntity
  8
VISIBLE
100
AcDbLine
 10
6.725235527517468
 20
5.435659803737361
 30
0.0
 11
6.741902194184135
 21
5.435659803737361
 31
0.0
  0
LINE
  5
103
330
1F
100
AcDbEntity
  8
VISIBLE
100
AcDbLine
 10
6.725235527517469
 20
5.702326470404029
 30
0.0
 11
6.725235527517468
 21
5.684315944697441
 31
0.0
  0
LINE
  5
104
330
1F
100
AcDbEntity
  8
VISIBLE
100
AcDbLine
 10
6.725235527517469
 20
5.435659803737362
 30
0.0
 11
6.725235527517468
 21
5.684315944697441
 31
0.0
  0
LINE
  5
105
330
1F
100
AcDbEntity
  8
VISIBLE
100
AcDbLine
 10
6.720235527517469
 20
5.684315944697441
 30
0.0
 11
6.720235527517469
 21
5.435659803737362
 31
0.0
  0
LINE
  5
106
330
1F
100
AcDbEntity
  8
VISIBLE
100
AcDbLine
 10
6.720235527517469
 20
5.684315944697441
 30
0.0
 11
6.720235527517469
 21
5.702326470404029
 31
0.0
  0
LINE
  5
107
330
1F
100
AcDbEntity
  8
VISIBLE
100
AcDbLine
 10
6.725235527517468
 20
5.43565980373736
 30
0.0
 11
6.720235527517469
 21
5.43565980373736
 31
0.0
  0
LINE
  5
108
330
1F
100
AcDbEntity
  8
VISIBLE
100
AcDbLine
 10
6.725235527517468
 20
5.702326470404026
 30
0.0
 11
6.720235527517469
 21
5.702326470404026
 31
0.0
  0
LINE
  5
109
330
1F
100
AcDbEntity
  8
VISIBLE
100
AcDbLine
 10
6.812502194184133
 20
5.744503646874616
 30
0.0
 11
6.795835527517466
 21
5.744503646874616
 31
0.0
  0
ARC
  5
10A
330
1F
100
AcDbEntity
  8
VISIBLE
100
AcDbCircle
 10
6.747802194184143
 20
4.948403646874622
 30
0.0
 40
0.0019666666666751
100
AcDbArc
 50
180.0000000001811
 51
269.9999999997672
  0
LINE
  5
10B
330
1F
100
AcDbEntity
  8
VISIBLE
100
AcDbLine
 10
6.812502194184135
 20
4.942503646874616
 30
0.0
 11
6.812502194184135
 21
4.94643698020795
 31
0.0
  0
LINE
  5
10C
330
1F
100
AcDbEntity
  8
VISIBLE
100
AcDbLine
 10
6.745835527517475
 20
5.738603646874616
 30
0.0
 11
6.747802194184141
 21
5.738603646874616
 31
0.0
  0
ARC
  5
10D
330
1F
100
AcDbEntity
  8
VISIBLE
100
AcDbCircle
 10
6.747802194184134
 20
5.738603646874616
 30
0.0
 40
0.0059000000000005
100
AcDbArc
 50
90.00000000000864
 51
180.0
  0
LINE
  5
10E
330
1F
100
AcDbEntity
  8
VISIBLE
100
AcDbLine
 10
6.812502194184142
 20
4.948403646874616
 30
0.0
 11
6.747802194184142
 21
4.948403646874616
 31
0.0
  0
LINE
  5
10F
330
1F
100
AcDbEntity
  8
VISIBLE
100
AcDbLine
 10
6.741902194184133
 20
5.738603646874616
 30
0.0
 11
6.741902194184134
 21
4.948403646874616
 31
0.0
  0
LINE
  5
110
330
1F
100
AcDbEntity
  8
VISIBLE
100
AcDbLine
 10
6.812502194184141
 20
5.738603646874616
 30
0.0
 11
6.812502194184141
 21
5.736636980207948
 31
0.0
  0
LINE
  5
111
330
1F
100
AcDbEntity
  8
VISIBLE
100
AcDbLine
 10
6.812502194184141
 20
5.732703646874614
 30
0.0
 11
6.812502194184141
 21
5.730736980207952
 31
0.0
  0
LINE
  5
112
330
1F
100
AcDbEntity
  8
VISIBLE
100
AcDbLine
 10
6.812502194184142
 20
4.954403646874618
 30
0.0
 11
6.812502194184142
 21
4.952436980207951
 31
0.0
  0
LINE
  5
113
330
1F
100
AcDbEntity
  8
VISIBLE
100
AcDbLine
 10
6.812502194184142
 20
4.948503646874618
 30
0.0
 11
6.812502194184142
 21
4.948403646874616
 31
0.0
  0
LINE
  5
114
330
1F
100
AcDbEntity
  8
VISIBLE
100
AcDbLine
 10
6.745835527517468
 20
4.948403646874616
 30
0.0
 11
6.745835527517468
 21
4.953303646874616
 31
0.0
  0
LINE
  5
115
330
1F
100
AcDbEntity
  8
VISIBLE
100
AcDbLine
 10
6.745835527517467
 20
5.729970313541283
 30
0.0
 11
6.745835527517467
 21
5.738603646874616
 31
0.0
  0
LINE
  5
116
330
1F
100
AcDbEntity
  8
VISIBLE
100
AcDbLine
 10
6.812502194184135
 20
4.94643698020795
 30
0.0
 11
6.795835527517468
 21
4.94643698020795
 31
0.0
  0
LINE
  5
117
330
1F
100
AcDbEntity
  8
VISIBLE
100
AcDbLine
 10
6.795835527517468
 20
4.946436980207949
 30
0.0
 11
6.747802194184135
 21
4.946436980207949
 31
0.0
  0
LINE
  5
118
330
1F
100
AcDbEntity
  8
VISIBLE
100
AcDbLine
 10
6.747802194184133
 20
5.740570313541283
 30
0.0
 11
6.795835527517466
 21
5.740570313541282
 31
0.0
  0
LINE
  5
119
330
1F
100
AcDbEntity
  8
VISIBLE
100
AcDbLine
 10
6.747802194184135
 20
4.942503646874616
 30
0.0
 11
6.795835527517468
 21
4.942503646874616
 31
0.0
  0
ARC
  5
11A
330
1F
100
AcDbEntity
  8
VISIBLE
100
AcDbCircle
 10
6.747802194184134
 20
4.948403646874616
 30
0.0
 40
0.0058999999999996
100
AcDbArc
 50
180.0
 51
270.0000000000086
  0
LINE
  5
11B
330
1F
100
AcDbEntity
  8
VISIBLE
100
AcDbLine
 10
6.747802194184141
 20
5.738603646874616
 30
0.0
 11
6.812502194184141
 21
5.738603646874616
 31
0.0
  0
LINE
  5
11C
330
1F
100
AcDbEntity
  8
VISIBLE
100
AcDbLine
 10
6.795835527517468
 20
4.942503646874616
 30
0.0
 11
6.812502194184135
 21
4.942503646874616
 31
0.0
  0
LINE
  5
11D
330
1F
100
AcDbEntity
  8
VISIBLE
100
AcDbLine
 10
6.795835527517466
 20
5.744503646874616
 30
0.0
 11
6.747802194184133
 21
5.744503646874616
 31
0.0
  0
ARC
  5
11E
330
1F
100
AcDbEntity
  8
VISIBLE
100
AcDbCircle
 10
6.747802194184136
 20
5.738603646874613
 30
0.0
 40
0.0019666666666698
100
AcDbArc
 50
90.00000000007762
 51
179.9999999999224
  0
LINE
  5
11F
330
1F
100
AcDbEntity
  8
VISIBLE
100
AcDbLine
 10
6.812502194184133
 20
5.740570313541282
 30
0.0
 11
6.812502194184133
 21
5.744503646874616
 31
0.0
  0
LINE
  5
120
330
1F
100
AcDbEntity
  8
VISIBLE
100
AcDbLine
 10
6.795835527517466
 20
5.740570313541282
 30
0.0
 11
6.812502194184133
 21
5.740570313541282
 31
0.0
  0
LINE
  5
121
330
1F
100
AcDbEntity
  8
VISIBLE
100
AcDbLine
 10
6.747802194184142
 20
4.948403646874616
 30
0.0
 11
6.745835527517476
 21
4.948403646874616
 31
0.0
  0
LINE
  5
122
330
1F
100
AcDbEntity
  8
VISIBLE
100
AcDbLine
 10
6.762235527517467
 20
5.729970313541282
 30
0.0
 11
6.762235527517467
 21
4.953303646874615
 31
0.0
  0
LINE
  5
123
330
1F
100
AcDbEntity
  8
VISIBLE
100
AcDbLine
 10
6.745835527517468
 20
5.729970313541282
 30
0.0
 11
6.762235527517467
 21
5.729970313541282
 31
0.0
  0
LINE
  5
124
330
1F
100
AcDbEntity
  8
VISIBLE
100
AcDbLine
 10
6.745835527517468
 20
5.729970313541282
 30
0.0
 11
6.745835527517467
 21
4.953303646874615
 31
0.0
  0
LINE
  5
125
330
1F
100
AcDbEntity
  8
VISIBLE
100
AcDbLine
 10
6.762235527517467
 20
4.953303646874615
 30
0.0
 11
6.745835527517467
 21
4.953303646874615
 31
0.0
  0
LINE
  5
126
330
1F
100
AcDbEntity
  8
VISIBLE
100
AcDbLine
 10
6.708235527517467
 20
5.391226470404027
 30
0.0
 11
6.708235527517467
 21
5.313426470404027
 31
0.0
  0
LINE
  5
127
330
1F
100
AcDbEntity
  8
VISIBLE
100
AcDbLine
 10
6.741902194184133
 20
5.313426470404027
 30
0.0
 11
6.708235527517467
 21
5.313426470404027
 31
0.0
  0
LINE
  5
128
330
1F
100
AcDbEntity
  8
VISIBLE
100
AcDbLine
 10
6.741902194184133
 20
5.391226470404027
 30
0.0
 11
6.708235527517466
 21
5.391226470404027
 31
0.0
  0
LINE
  5
129
330
1F
100
AcDbEntity
  8
VISIBLE
100
AcDbLine
 10
7.242364586493671
 20
2.735970313541292
 30
0.0
 11
7.360950104902871
 21
2.735970313541288
 31
0.0
  0
LINE
  5
12A
330
1F
100
AcDbEntity
  8
VISIBLE
100
AcDbLine
 10
6.961808808372338
 20
2.735970313541291
 30
0.0
 11
7.161799900458538
 21
2.735970313541292
 31
0.0
  0
LINE
  5
12B
330
1F
100
AcDbEntity
  8
VISIBLE
100
AcDbLine
 10
7.161799900458538
 20
2.719303646874625
 30
0.0
 11
6.961808808372338
 21
2.719303646874625
 31
0.0
  0
LINE
  5
12C
330
1F
100
AcDbEntity
  8
VISIBLE
100
AcDbLine
 10
6.881188613196855
 20
2.719303646874625
 30
0.0
 11
6.760948539659178
 21
2.71930364687462
 31
0.0
  0
LINE
  5
12D
330
1F
100
AcDbEntity
  8
VISIBLE
100
AcDbLine
 10
7.161799900458538
 20
2.719303646874625
 30
0.0
 11
7.242364586493671
 21
2.719303646874625
 31
0.0
  0
LINE
  5
12E
330
1F
100
AcDbEntity
  8
VISIBLE
100
AcDbLine
 10
6.961808808372338
 20
2.735970313541291
 30
0.0
 11
6.881188613196855
 21
2.735970313541291
 31
0.0
  0
LINE
  5
12F
330
1F
100
AcDbEntity
  8
VISIBLE
100
AcDbLine
 10
6.881188613196855
 20
2.719303646874625
 30
0.0
 11
6.961808808372338
 21
2.719303646874625
 31
0.0
  0
LINE
  5
130
330
1F
100
AcDbEntity
  8
VISIBLE
100
AcDbLine
 10
6.760948539659178
 20
2.735970313541286
 30
0.0
 11
6.881188613196855
 21
2.735970313541291
 31
0.0
  0
LINE
  5
131
330
1F
100
AcDbEntity
  8
VISIBLE
100
AcDbLine
 10
7.242364586493671
 20
2.735970313541292
 30
0.0
 11
7.161799900458538
 21
2.735970313541292
 31
0.0
  0
LINE
  5
132
330
1F
100
AcDbEntity
  8
VISIBLE
100
AcDbLine
 10
7.360950104902871
 20
2.719303646874621
 30
0.0
 11
7.242364586493671
 21
2.719303646874625
 31
0.0
  0
LINE
  5
133
330
1F
100
AcDbEntity
  8
VISIBLE
100
AcDbLine
 10
6.760948539659177
 20
2.719303646874616
 30
0.0
 11
6.760948539659177
 21
2.735970313541283
 31
0.0
  0
LINE
  5
134
330
1F
100
AcDbEntity
  8
VISIBLE
100
AcDbLine
 10
7.360950104902871
 20
2.719303646874618
 30
0.0
 11
7.360950104902871
 21
2.735970313541285
 31
0.0
  0
SPLINE
  5
135
330
1F
100
AcDbEntity
  8
VISIBLE
100
AcDbSpline
210
0.0
220
0.0
230
1.0
 70
     8
 71
     3
 72
    14
 73
    10
 74
     0
 42
0.000000001
 43
0.000001
 40
0.0
 40
0.0
 40
0.0
 40
0.0
 40
0.4139851475210848
 40
0.4139851475210848
 40
0.8279702950421696
 40
0.8279702950421696
 40
1.241853417336554
 40
1.241853417336554
 40
1.655736539630929
 40
1.655736539630929
 40
1.655736539630929
 40
1.655736539630929
 10
7.256648512618427
 20
3.269303646874616
 30
0.0
 10
7.256648512618427
 20
3.272925564175763
 30
0.0
 10
7.256877989902648
 20
3.276773983020369
 30
0.0
 10
7.257693296737568
 20
3.283830225468135
 30
0.0
 10
7.258265954326673
 20
3.287039961156207
 30
0.0
 10
7.259333123281081
 20
3.292107496865659
 30
0.0
 10
7.259899090785604
 20
3.294310556896944
 30
0.0
 10
7.260705326887742
 20
3.297242510760652
 30
0.0
 10
7.26093534542046
 20
3.297970313541283
 30
0.0
 10
7.260948342683252
 20
3.297970313541283
 30
0.0
  0
LINE
  5
136
330
1F
100
AcDbEntity
  8
VISIBLE
100
AcDbLine
 10
7.260948342683252
 20
3.297970313541283
 30
0.0
 11
7.260948927268372
 21
3.29796793898891
 31
0.0
  0
SPLINE
  5
137
330
1F
100
AcDbEntity
  8
VISIBLE
100
AcDbSpline
210
0.0
220
0.0
230
1.0
 70
     8
 71
     3
 72
    22
 73
    18
 74
     0
 42
0.000000001
 43
0.000001
 40
1.669384479489086
 40
1.669384479489086
 40
1.669384479489086
 40
1.669384479489086
 40
2.069619661925323
 40
2.069619661925323
 40
2.483502784219708
 40
2.483502784219708
 40
2.897487931740793
 40
2.897487931740793
 40
3.311473079261877
 40
3.311473079261877
 40
3.725458226782958
 40
3.725458226782958
 40
4.139443374304039
 40
4.139443374304039
 40
4.553326496598425
 40
4.553326496598425
 40
4.953561679034665
 40
4.953561679034665
 40
4.953561679034665
 40
4.953561679034665
 10
7.260948927268372
 20
3.29796793898891
 30
0.0
 10
7.260947801516991
 20
3.297921511770758
 30
0.0
 10
7.260746493122213
 20
3.297194169661628
 30
0.0
 10
7.260003376489538
 20
3.294310556896944
 30
0.0
 10
7.259460452793744
 20
3.292107496865659
 30
0.0
 10
7.258429662543669
 20
3.287039961156207
 30
0.0
 10
7.25787281675055
 20
3.283830225468135
 30
0.0
 10
7.25707855519641
 20
3.276773983020369
 30
0.0
 10
7.25685430420051
 20
3.272925564175763
 30
0.0
 10
7.25685430420051
 20
3.265681729573469
 30
0.0
 10
7.25707855519641
 20
3.261833310728863
 30
0.0
 10
7.25787281675055
 20
3.254777068281097
 30
0.0
 10
7.258429662543669
 20
3.251567332593025
 30
0.0
 10
7.259460452793745
 20
3.246499796883573
 30
0.0
 10
7.260003376489538
 20
3.244296736852289
 30
0.0
 10
7.260746493122213
 20
3.241413124087604
 30
0.0
 10
7.260947801516992
 20
3.240685781978474
 30
0.0
 10
7.260948927268373
 20
3.240639354760321
 30
0.0
  0
LINE
  5
138
330
1F
100
AcDbEntity
  8
VISIBLE
100
AcDbLine
 10
7.260948927268373
 20
3.240639354760321
 30
0.0
 11
7.260948342683252
 21
3.240636980207949
 31
0.0
  0
SPLINE
  5
139
330
1F
100
AcDbEntity
  8
VISIBLE
100
AcDbSpline
210
0.0
220
0.0
230
1.0
 70
     8
 71
     3
 72
    14
 73
    10
 74
     0
 42
0.000000001
 43
0.000001
 40
4.967209618892802
 40
4.967209618892802
 40
4.967209618892802
 40
4.967209618892802
 40
5.381092741187198
 40
5.381092741187198
 40
5.794975863481583
 40
5.794975863481583
 40
6.208961011002664
 40
6.208961011002664
 40
6.622946158523745
 40
6.622946158523745
 40
6.622946158523745
 40
6.622946158523745
 10
7.260948342683252
 20
3.240636980207949
 30
0.0
 10
7.26093534542046
 20
3.240636980207949
 30
0.0
 10
7.260705326887742
 20
3.24136478298858
 30
0.0
 10
7.259899090785604
 20
3.244296736852289
 30
0.0
 10
7.259333123281081
 20
3.246499796883573
 30
0.0
 10
7.258265954326673
 20
3.251567332593026
 30
0.0
 10
7.257693296737568
 20
3.254777068281098
 30
0.0
 10
7.256877989902648
 20
3.261833310728863
 30
0.0
 10
7.256648512618427
 20
3.26568172957347
 30
0.0
 10
7.256648512618427
 20
3.269303646874616
 30
0.0
  0
LINE
  5
13A
330
1F
100
AcDbEntity
  8
VISIBLE
100
AcDbLine
 10
7.26094898687066
 20
3.240639227454169
 30
0.0
 11
7.260948986870661
 21
2.735970313541284
 31
0.0
  0
LINE
  5
13B
330
1F
100
AcDbEntity
  8
VISIBLE
100
AcDbLine
 10
7.060948986870655
 20
4.935970313541282
 30
0.0
 11
7.060948986870661
 21
2.735970313541283
 31
0.0
  0
LINE
  5
13C
330
1F
100
AcDbEntity
  8
VISIBLE
100
AcDbLine
 10
7.260948986870655
 20
4.935970313541283
 30
0.0
 11
7.26094898687066
 21
3.297968066295065
 31
0.0
  0
LINE
  5
13D
330
1F
100
AcDbEntity
  8
VISIBLE
100
AcDbLine
 10
6.860948986870655
 20
4.935970313541285
 30
0.0
 11
6.827615653537322
 21
4.935970313541285
 31
0.0
  0
LINE
  5
13E
330
1F
100
AcDbEntity
  8
VISIBLE
100
AcDbLine
 10
6.827615653537322
 20
4.948503646874618
 30
0.0
 11
6.827615653537322
 21
4.935970313541285
 31
0.0
  0
LINE
  5
13F
330
1F
100
AcDbEntity
  8
VISIBLE
100
AcDbLine
 10
6.860948986870655
 20
4.935970313541285
 30
0.0
 11
7.260948986870655
 21
4.935970313541286
 31
0.0
  0
LINE
  5
140
330
1F
100
AcDbEntity
  8
VISIBLE
100
AcDbLine
 10
7.260948986870655
 20
4.935970313541286
 30
0.0
 11
7.294282320203989
 21
4.935970313541286
 31
0.0
  0
LINE
  5
141
330
1F
100
AcDbEntity
  8
VISIBLE
100
AcDbLine
 10
7.294282320203989
 20
4.935970313541286
 30
0.0
 11
7.294282320203989
 21
4.948503646874618
 31
0.0
  0
LINE
  5
142
330
1F
100
AcDbEntity
  8
TANGENT_EDGES
100
AcDbLine
 10
7.336035527517473
 20
5.730736980207956
 30
0.0
 11
7.336035527517473
 21
4.954403646874618
 31
0.0
  0
LINE
  5
143
330
1F
100
AcDbEntity
  8
TANGENT_EDGES
100
AcDbLine
 10
6.768135527517469
 20
4.954403646874618
 30
0.0
 11
6.76813552751747
 21
5.730736980207956
 31
0.0
  0
LINE
  5
144
330
1F
100
AcDbEntity
  8
TANGENT_EDGES
100
AcDbLine
 10
6.795835527517466
 20
5.744503646874616
 30
0.0
 11
6.795835527517466
 21
5.740570313541282
 31
0.0
  0
LINE
  5
145
330
1F
100
AcDbEntity
  8
TANGENT_EDGES
100
AcDbLine
 10
6.747802194184142
 20
4.948403646874616
 30
0.0
 11
6.747802194184142
 21
4.953303646874616
 31
0.0
  0
LINE
  5
146
330
1F
100
AcDbEntity
  8
TANGENT_EDGES
100
AcDbLine
 10
6.747802194184141
 20
5.729970313541283
 30
0.0
 11
6.747802194184141
 21
5.738603646874616
 31
0.0
  0
LINE
  5
147
330
1F
100
AcDbEntity
  8
TANGENT_EDGES
100
AcDbLine
 10
6.795835527517468
 20
4.946436980207949
 30
0.0
 11
6.795835527517468
 21
4.942503646874616
 31
0.0
  0
LINE
  5
148
330
1F
100
AcDbEntity
  8
TANGENT_EDGES
100
AcDbLine
 10
6.961808808372338
 20
2.719303646874625
 30
0.0
 11
6.961808808372338
 21
2.735970313541291
 31
0.0
  0
LINE
  5
149
330
1F
100
AcDbEntity
  8
TANGENT_EDGES
100
AcDbLine
 10
6.881188613196855
 20
2.735970313541291
 30
0.0
 11
6.881188613196855
 21
2.719303646874625
 31
0.0
  0
LINE
  5
14A
330
1F
100
AcDbEntity
  8
TANGENT_EDGES
100
AcDbLine
 10
7.242364586493671
 20
2.719303646874625
 30
0.0
 11
7.242364586493671
 21
2.735970313541292
 31
0.0
  0
LINE
  5
14B
330
1F
100
AcDbEntity
  8
TANGENT_EDGES
100
AcDbLine
 10
7.161799900458538
 20
2.735970313541292
 30
0.0
 11
7.161799900458538
 21
2.719303646874625
 31
0.0
  0
LINE
  5
14C
330
1F
100
AcDbEntity
  8
TANGENT_EDGES
100
AcDbLine
 10
7.260948986870655
 20
4.948503646874619
 30
0.0
 11
7.260948986870655
 21
4.935970313541286
 31
0.0
  0
LINE
  5
14D
330
1F
100
AcDbEntity
  8
TANGENT_EDGES
100
AcDbLine
 10
6.860948986870655
 20
4.935970313541285
 30
0.0
 11
6.860948986870655
 21
4.948503646874618
 31
0.0
  0
LINE
  5
14E
330
1F
100
AcDbEntity
  8
VISIBLE
100
AcDbLine
 10
4.066473476593837
 20
5.181836980207955
 30
0.0
 11
3.919806809927169
 21
5.181836980207955
 31
0.0
  0
LINE
  5
14F
330
1F
100
AcDbEntity
  8
VISIBLE
100
AcDbLine
 10
3.615706809927167
 20
4.954403646874621
 30
0.0
 11
3.609806809927167
 21
4.954403646874621
 31
0.0
  0
LINE
  5
150
330
1F
100
AcDbEntity
  8
VISIBLE
100
AcDbLine
 10
3.919806809927169
 20
5.085170313541288
 30
0.0
 11
4.066473476593837
 21
5.085170313541288
 31
0.0
  0
LINE
  5
151
330
1F
100
AcDbEntity
  8
VISIBLE
100
AcDbLine
 10
3.919806809927169
 20
5.181836980207955
 30
0.0
 11
3.919806809927169
 21
5.185170313541288
 31
0.0
  0
LINE
  5
152
330
1F
100
AcDbEntity
  8
VISIBLE
100
AcDbLine
 10
4.139240143260498
 20
4.952436980207955
 30
0.0
 11
3.615706809927167
 21
4.952436980207954
 31
0.0
  0
LINE
  5
153
330
1F
100
AcDbEntity
  8
VISIBLE
100
AcDbLine
 10
3.615706809927167
 20
4.94850364687462
 30
0.0
 11
4.139240143260499
 21
4.948503646874622
 31
0.0
  0
LINE
  5
154
330
1F
100
AcDbEntity
  8
VISIBLE
100
AcDbLine
 10
3.7231401432605
 20
5.285170313541289
 30
0.0
 11
3.869806809927168
 21
5.285170313541289
 31
0.0
  0
LINE
  5
155
330
1F
100
AcDbEntity
  8
VISIBLE
100
AcDbLine
 10
3.919806809927169
 20
5.281836980207956
 30
0.0
 11
3.919806809927169
 21
5.285170313541289
 31
0.0
  0
LINE
  5
156
330
1F
100
AcDbEntity
  8
VISIBLE
100
AcDbLine
 10
3.869806809927168
 20
5.285170313541289
 30
0.0
 11
3.869806809927168
 21
5.281836980207956
 31
0.0
  0
LINE
  5
157
330
1F
100
AcDbEntity
  8
VISIBLE
100
AcDbLine
 10
4.139240143260499
 20
5.736636980207957
 30
0.0
 11
3.615706809927166
 21
5.736636980207959
 31
0.0
  0
LINE
  5
158
330
1F
100
AcDbEntity
  8
VISIBLE
100
AcDbLine
 10
3.7231401432605
 20
5.181836980207955
 30
0.0
 11
3.7231401432605
 21
5.185170313541288
 31
0.0
  0
LINE
  5
159
330
1F
100
AcDbEntity
  8
VISIBLE
100
AcDbLine
 10
4.066473476593837
 20
5.185170313541288
 30
0.0
 11
4.066473476593837
 21
5.181836980207955
 31
0.0
  0
LINE
  5
15A
330
1F
100
AcDbEntity
  8
VISIBLE
100
AcDbLine
 10
3.919806809927169
 20
5.081836980207955
 30
0.0
 11
3.919806809927169
 21
5.085170313541288
 31
0.0
  0
ARC
  5
15B
330
1F
100
AcDbEntity
  8
VISIBLE
100
AcDbCircle
 10
3.615706809927167
 20
4.954403646874621
 30
0.0
 40
0.0019666666666667
100
AcDbArc
 50
180.0
 51
270.0
  0
LINE
  5
15C
330
1F
100
AcDbEntity
  8
VISIBLE
100
AcDbLine
 10
3.869806809927168
 20
5.081836980207955
 30
0.0
 11
3.7231401432605
 21
5.081836980207955
 31
0.0
  0
LINE
  5
15D
330
1F
100
AcDbEntity
  8
VISIBLE
100
AcDbLine
 10
4.066473476593837
 20
5.281836980207956
 30
0.0
 11
3.919806809927169
 21
5.281836980207956
 31
0.0
  0
LINE
  5
15E
330
1F
100
AcDbEntity
  8
VISIBLE
100
AcDbLine
 10
3.869806809927168
 20
5.185170313541288
 30
0.0
 11
3.869806809927168
 21
5.181836980207955
 31
0.0
  0
LINE
  5
15F
330
1F
100
AcDbEntity
  8
VISIBLE
100
AcDbLine
 10
3.7231401432605
 20
5.281836980207956
 30
0.0
 11
3.7231401432605
 21
5.285170313541289
 31
0.0
  0
LINE
  5
160
330
1F
100
AcDbEntity
  8
VISIBLE
100
AcDbLine
 10
4.066473476593837
 20
5.085170313541288
 30
0.0
 11
4.066473476593837
 21
5.081836980207955
 31
0.0
  0
LINE
  5
161
330
1F
100
AcDbEntity
  8
VISIBLE
100
AcDbLine
 10
4.066473476593837
 20
5.081836980207955
 30
0.0
 11
3.919806809927169
 21
5.081836980207955
 31
0.0
  0
LINE
  5
162
330
1F
100
AcDbEntity
  8
VISIBLE
100
AcDbLine
 10
3.869806809927168
 20
5.085170313541288
 30
0.0
 11
3.869806809927168
 21
5.081836980207955
 31
0.0
  0
LINE
  5
163
330
1F
100
AcDbEntity
  8
VISIBLE
100
AcDbLine
 10
3.7231401432605
 20
5.185170313541288
 30
0.0
 11
3.869806809927168
 21
5.185170313541288
 31
0.0
  0
ARC
  5
164
330
1F
100
AcDbEntity
  8
VISIBLE
100
AcDbCircle
 10
3.61570680992716
 20
5.730736980207965
 30
0.0
 40
0.0019666666666609
100
AcDbArc
 50
89.99999999984476
 51
180.0000000001811
  0
LINE
  5
165
330
1F
100
AcDbEntity
  8
VISIBLE
100
AcDbLine
 10
3.615706809927166
 20
5.732703646874626
 30
0.0
 11
4.139240143260499
 21
5.732703646874624
 31
0.0
  0
ARC
  5
166
330
1F
100
AcDbEntity
  8
VISIBLE
100
AcDbCircle
 10
3.615706809927166
 20
5.730736980207959
 30
0.0
 40
0.0059000000000005
100
AcDbArc
 50
90.0
 51
180.0
  0
LINE
  5
167
330
1F
100
AcDbEntity
  8
VISIBLE
100
AcDbLine
 10
4.066473476593837
 20
5.285170313541289
 30
0.0
 11
4.066473476593837
 21
5.281836980207956
 31
0.0
  0
LINE
  5
168
330
1F
100
AcDbEntity
  8
VISIBLE
100
AcDbLine
 10
3.919806809927169
 20
5.185170313541288
 30
0.0
 11
4.066473476593837
 21
5.185170313541288
 31
0.0
  0
LINE
  5
169
330
1F
100
AcDbEntity
  8
VISIBLE
100
AcDbLine
 10
3.7231401432605
 20
5.081836980207955
 30
0.0
 11
3.7231401432605
 21
5.085170313541288
 31
0.0
  0
LINE
  5
16A
330
1F
100
AcDbEntity
  8
VISIBLE
100
AcDbLine
 10
3.869806809927168
 20
5.281836980207956
 30
0.0
 11
3.7231401432605
 21
5.281836980207956
 31
0.0
  0
LINE
  5
16B
330
1F
100
AcDbEntity
  8
VISIBLE
100
AcDbLine
 10
3.7231401432605
 20
5.085170313541288
 30
0.0
 11
3.869806809927168
 21
5.085170313541288
 31
0.0
  0
LINE
  5
16C
330
1F
100
AcDbEntity
  8
VISIBLE
100
AcDbLine
 10
3.919806809927169
 20
5.285170313541289
 30
0.0
 11
4.066473476593837
 21
5.285170313541289
 31
0.0
  0
LINE
  5
16D
330
1F
100
AcDbEntity
  8
VISIBLE
100
AcDbLine
 10
3.615706809927166
 20
5.730736980207959
 30
0.0
 11
3.609806809927166
 21
5.730736980207959
 31
0.0
  0
LINE
  5
16E
330
1F
100
AcDbEntity
  8
VISIBLE
100
AcDbLine
 10
3.615706809927166
 20
5.730736980207959
 30
0.0
 11
4.139240143260499
 21
5.730736980207959
 31
0.0
  0
LINE
  5
16F
330
1F
100
AcDbEntity
  8
VISIBLE
100
AcDbLine
 10
4.139240143260499
 20
4.95440364687462
 30
0.0
 11
3.615706809927167
 21
4.954403646874621
 31
0.0
  0
ARC
  5
170
330
1F
100
AcDbEntity
  8
VISIBLE
100
AcDbCircle
 10
3.615706809927167
 20
4.954403646874621
 30
0.0
 40
0.0059
100
AcDbArc
 50
180.0
 51
270.0
  0
LINE
  5
171
330
1F
100
AcDbEntity
  8
VISIBLE
100
AcDbLine
 10
3.869806809927168
 20
5.181836980207955
 30
0.0
 11
3.7231401432605
 21
5.181836980207955
 31
0.0
  0
LINE
  5
172
330
1F
100
AcDbEntity
  8
VISIBLE
100
AcDbLine
 10
3.609806809927166
 20
5.730736980207959
 30
0.0
 11
3.609806809927167
 21
4.954403646874621
 31
0.0
  0
LINE
  5
173
330
1F
100
AcDbEntity
  8
VISIBLE
100
AcDbLine
 10
4.092473476593844
 20
4.95440364687462
 30
0.0
 11
4.092473476593844
 21
4.952436980207953
 31
0.0
  0
LINE
  5
174
330
1F
100
AcDbEntity
  8
VISIBLE
100
AcDbLine
 10
3.827140143260511
 20
4.954403646874621
 30
0.0
 11
3.827140143260511
 21
4.952436980207952
 31
0.0
  0
ARC
  5
175
330
1F
100
AcDbEntity
  8
VISIBLE
100
AcDbCircle
 10
3.959806809927181
 20
5.169103646874619
 30
0.0
 40
0.1756666666666664
100
AcDbArc
 50
174.7523312913852
 51
175.8432258786768
  0
ARC
  5
176
330
1F
100
AcDbEntity
  8
VISIBLE
100
AcDbCircle
 10
3.959806809927181
 20
5.169103646874619
 30
0.0
 40
0.1756666666666666
100
AcDbArc
 50
138.6451116667583
 51
140.077882258228
  0
ARC
  5
177
330
1F
100
AcDbEntity
  8
VISIBLE
100
AcDbCircle
 10
3.959806809927181
 20
5.169103646874619
 30
0.0
 40
0.1756666666666666
100
AcDbArc
 50
208.5417406033037
 51
209.7868108610733
  0
LINE
  5
178
330
1F
100
AcDbEntity
  8
VISIBLE
100
AcDbLine
 10
3.809806809927173
 20
5.281836980207953
 30
0.0
 11
3.809806809927173
 21
5.285170313541287
 31
0.0
  0
LINE
  5
179
330
1F
100
AcDbEntity
  8
VISIBLE
100
AcDbLine
 10
4.226506809927167
 20
5.702326470404029
 30
0.0
 11
4.226506809927167
 21
5.435659803737361
 31
0.0
  0
LINE
  5
17A
330
1F
100
AcDbEntity
  8
VISIBLE
100
AcDbLine
 10
4.226506809927168
 20
5.435659803737361
 30
0.0
 11
4.209840143260501
 21
5.435659803737361
 31
0.0
  0
LINE
  5
17B
330
1F
100
AcDbEntity
  8
VISIBLE
100
AcDbLine
 10
4.226506809927168
 20
5.702326470404028
 30
0.0
 11
4.209840143260501
 21
5.702326470404028
 31
0.0
  0
LINE
  5
17C
330
1F
100
AcDbEntity
  8
VISIBLE
100
AcDbLine
 10
4.226506809927167
 20
5.435659803737362
 30
0.0
 11
4.226506809927167
 21
5.702326470404029
 31
0.0
  0
LINE
  5
17D
330
1F
100
AcDbEntity
  8
VISIBLE
100
AcDbLine
 10
4.231506809927167
 20
5.702326470404029
 30
0.0
 11
4.231506809927167
 21
5.435659803737362
 31
0.0
  0
LINE
  5
17E
330
1F
100
AcDbEntity
  8
VISIBLE
100
AcDbLine
 10
4.226506809927168
 20
5.702326470404026
 30
0.0
 11
4.231506809927168
 21
5.702326470404026
 31
0.0
  0
LINE
  5
17F
330
1F
100
AcDbEntity
  8
VISIBLE
100
AcDbLine
 10
4.226506809927168
 20
5.43565980373736
 30
0.0
 11
4.231506809927168
 21
5.43565980373736
 31
0.0
  0
LINE
  5
180
330
1F
100
AcDbEntity
  8
VISIBLE
100
AcDbLine
 10
4.203940143260494
 20
4.948403646874616
 30
0.0
 11
4.209840143260494
 21
4.948403646874616
 31
0.0
  0
LINE
  5
181
330
1F
100
AcDbEntity
  8
VISIBLE
100
AcDbLine
 10
4.139240143260495
 20
5.740570313541282
 30
0.0
 11
4.139240143260495
 21
5.744503646874616
 31
0.0
  0
LINE
  5
182
330
1F
100
AcDbEntity
  8
VISIBLE
100
AcDbLine
 10
4.139240143260494
 20
4.942503646874616
 30
0.0
 11
4.203940143260494
 21
4.942503646874616
 31
0.0
  0
LINE
  5
183
330
1F
100
AcDbEntity
  8
VISIBLE
100
AcDbLine
 10
4.139240143260495
 20
5.738603646874616
 30
0.0
 11
4.203940143260495
 21
5.738603646874616
 31
0.0
  0
LINE
  5
184
330
1F
100
AcDbEntity
  8
VISIBLE
100
AcDbLine
 10
4.203940143260495
 20
5.744503646874616
 30
0.0
 11
4.139240143260495
 21
5.744503646874616
 31
0.0
  0
LINE
  5
185
330
1F
100
AcDbEntity
  8
VISIBLE
100
AcDbLine
 10
4.203940143260494
 20
4.946436980207949
 30
0.0
 11
4.139240143260494
 21
4.946436980207949
 31
0.0
  0
ARC
  5
186
330
1F
100
AcDbEntity
  8
VISIBLE
100
AcDbCircle
 10
4.203940143260494
 20
4.948403646874616
 30
0.0
 40
0.0059000000000005
100
AcDbArc
 50
270.0
 51
0.0
  0
LINE
  5
187
330
1F
100
AcDbEntity
  8
VISIBLE
100
AcDbLine
 10
4.209840143260495
 20
5.738603646874616
 30
0.0
 11
4.203940143260495
 21
5.738603646874616
 31
0.0
  0
LINE
  5
188
330
1F
100
AcDbEntity
  8
VISIBLE
100
AcDbLine
 10
4.139240143260494
 20
4.948403646874616
 30
0.0
 11
4.139240143260495
 21
5.738603646874616
 31
0.0
  0
ARC
  5
189
330
1F
100
AcDbEntity
  8
VISIBLE
100
AcDbCircle
 10
4.203940143260501
 20
4.948403646874608
 30
0.0
 40
0.0019666666666591
100
AcDbArc
 50
269.9999999998189
 51
0.0000000002328813
  0
LINE
  5
18A
330
1F
100
AcDbEntity
  8
VISIBLE
100
AcDbLine
 10
4.139240143260494
 20
4.946436980207949
 30
0.0
 11
4.139240143260494
 21
4.942503646874616
 31
0.0
  0
LINE
  5
18B
330
1F
100
AcDbEntity
  8
VISIBLE
100
AcDbLine
 10
4.203940143260494
 20
4.948403646874616
 30
0.0
 11
4.139240143260494
 21
4.948403646874616
 31
0.0
  0
ARC
  5
18C
330
1F
100
AcDbEntity
  8
VISIBLE
100
AcDbCircle
 10
4.203940143260494
 20
5.738603646874615
 30
0.0
 40
0.001966666666668
100
AcDbArc
 50
0.0000000000258757
 51
89.99999999997412
  0
ARC
  5
18D
330
1F
100
AcDbEntity
  8
VISIBLE
100
AcDbCircle
 10
4.203940143260495
 20
5.738603646874616
 30
0.0
 40
0.0058999999999996
100
AcDbArc
 50
0.0
 51
90.0
  0
LINE
  5
18E
330
1F
100
AcDbEntity
  8
VISIBLE
100
AcDbLine
 10
4.209840143260494
 20
4.948403646874616
 30
0.0
 11
4.209840143260495
 21
5.738603646874616
 31
0.0
  0
LINE
  5
18F
330
1F
100
AcDbEntity
  8
VISIBLE
100
AcDbLine
 10
4.139240143260495
 20
5.740570313541282
 30
0.0
 11
4.203940143260495
 21
5.740570313541283
 31
0.0
  0
LINE
  5
190
330
1F
100
AcDbEntity
  8
VISIBLE
100
AcDbLine
 10
4.243506809927169
 20
5.313426470404027
 30
0.0
 11
4.243506809927169
 21
5.391226470404027
 31
0.0
  0
LINE
  5
191
330
1F
100
AcDbEntity
  8
VISIBLE
100
AcDbLine
 10
4.209840143260502
 20
5.313426470404027
 30
0.0
 11
4.243506809927169
 21
5.313426470404027
 31
0.0
  0
LINE
  5
192
330
1F
100
AcDbEntity
  8
VISIBLE
100
AcDbLine
 10
4.209840143260502
 20
5.391226470404027
 30
0.0
 11
4.243506809927169
 21
5.391226470404027
 31
0.0
  0
LINE
  5
193
330
1F
100
AcDbEntity
  8
VISIBLE
100
AcDbLine
 10
3.791652501254926
 20
2.735970313541283
 30
0.0
 11
3.991643593341126
 21
2.735970313541282
 31
0.0
  0
LINE
  5
194
330
1F
100
AcDbEntity
  8
VISIBLE
100
AcDbLine
 10
3.590792232541765
 20
2.735970313541288
 30
0.0
 11
3.711032306079443
 21
2.735970313541283
 31
0.0
  0
LINE
  5
195
330
1F
100
AcDbEntity
  8
VISIBLE
100
AcDbLine
 10
3.991643593341126
 20
2.719303646874616
 30
0.0
 11
4.072208279376258
 21
2.719303646874616
 31
0.0
  0
LINE
  5
196
330
1F
100
AcDbEntity
  8
VISIBLE
100
AcDbLine
 10
4.072208279376259
 20
2.735970313541282
 30
0.0
 11
3.991643593341126
 21
2.735970313541282
 31
0.0
  0
LINE
  5
197
330
1F
100
AcDbEntity
  8
VISIBLE
100
AcDbLine
 10
4.072208279376259
 20
2.719303646874616
 30
0.0
 11
4.190793797785458
 21
2.71930364687462
 31
0.0
  0
LINE
  5
198
330
1F
100
AcDbEntity
  8
VISIBLE
100
AcDbLine
 10
3.711032306079443
 20
2.719303646874616
 30
0.0
 11
3.791652501254926
 21
2.719303646874616
 31
0.0
  0
LINE
  5
199
330
1F
100
AcDbEntity
  8
VISIBLE
100
AcDbLine
 10
3.791652501254926
 20
2.735970313541283
 30
0.0
 11
3.711032306079443
 21
2.735970313541283
 31
0.0
  0
LINE
  5
19A
330
1F
100
AcDbEntity
  8
VISIBLE
100
AcDbLine
 10
4.072208279376259
 20
2.735970313541282
 30
0.0
 11
4.190793797785458
 21
2.735970313541286
 31
0.0
  0
LINE
  5
19B
330
1F
100
AcDbEntity
  8
VISIBLE
100
AcDbLine
 10
3.991643593341126
 20
2.719303646874616
 30
0.0
 11
3.791652501254926
 21
2.719303646874616
 31
0.0
  0
LINE
  5
19C
330
1F
100
AcDbEntity
  8
VISIBLE
100
AcDbLine
 10
3.590792232541765
 20
2.719303646874621
 30
0.0
 11
3.711032306079443
 21
2.719303646874616
 31
0.0
  0
LINE
  5
19D
330
1F
100
AcDbEntity
  8
VISIBLE
100
AcDbLine
 10
3.590792232541765
 20
2.719303646874618
 30
0.0
 11
3.590792232541765
 21
2.735970313541285
 31
0.0
  0
LINE
  5
19E
330
1F
100
AcDbEntity
  8
VISIBLE
100
AcDbLine
 10
4.190793797785458
 20
2.719303646874616
 30
0.0
 11
4.190793797785458
 21
2.735970313541283
 31
0.0
  0
SPLINE
  5
19F
330
1F
100
AcDbEntity
  8
VISIBLE
100
AcDbSpline
210
0.0
220
0.0
230
1.0
 70
     8
 71
     3
 72
    14
 73
    10
 74
     0
 42
0.000000001
 43
0.000001
 40
0.0
 40
0.0
 40
0.0
 40
0.0
 40
0.4139851475210848
 40
0.4139851475210848
 40
0.8279702950421696
 40
0.8279702950421696
 40
1.241853417336554
 40
1.241853417336554
 40
1.65573653963093
 40
1.65573653963093
 40
1.65573653963093
 40
1.65573653963093
 10
3.695093824826209
 20
3.269303646874616
 30
0.0
 10
3.695093824826209
 20
3.272925564175763
 30
0.0
 10
3.694864347541988
 20
3.276773983020369
 30
0.0
 10
3.694049040707069
 20
3.283830225468135
 30
0.0
 10
3.693476383117964
 20
3.287039961156207
 30
0.0
 10
3.692409214163555
 20
3.292107496865659
 30
0.0
 10
3.691843246659033
 20
3.294310556896944
 30
0.0
 10
3.691037010556893
 20
3.297242510760652
 30
0.0
 10
3.690806992024176
 20
3.297970313541283
 30
0.0
 10
3.690793994761384
 20
3.297970313541283
 30
0.0
  0
SPLINE
  5
1A0
330
1F
100
AcDbEntity
  8
VISIBLE
100
AcDbSpline
210
0.0
220
0.0
230
1.0
 70
     8
 71
     3
 72
    22
 73
    18
 74
     0
 42
0.000000001
 43
0.000001
 40
1.669384479489086
 40
1.669384479489086
 40
1.669384479489086
 40
1.669384479489086
 40
2.069619661925323
 40
2.069619661925323
 40
2.483502784219708
 40
2.483502784219708
 40
2.897487931740793
 40
2.897487931740793
 40
3.311473079261877
 40
3.311473079261877
 40
3.725458226782958
 40
3.725458226782958
 40
4.139443374304039
 40
4.139443374304039
 40
4.553326496598425
 40
4.553326496598425
 40
4.953561679034923
 40
4.953561679034923
 40
4.953561679034923
 40
4.953561679034923
 10
3.690793410176263
 20
3.297967938988911
 30
0.0
 10
3.690794535927644
 20
3.297921511770759
 30
0.0
 10
3.690995844322424
 20
3.297194169661628
 30
0.0
 10
3.691738960955098
 20
3.294310556896944
 30
0.0
 10
3.692281884650892
 20
3.292107496865659
 30
0.0
 10
3.693312674900967
 20
3.287039961156207
 30
0.0
 10
3.693869520694086
 20
3.283830225468135
 30
0.0
 10
3.694663782248226
 20
3.276773983020369
 30
0.0
 10
3.694888033244126
 20
3.272925564175763
 30
0.0
 10
3.694888033244126
 20
3.265681729573469
 30
0.0
 10
3.694663782248226
 20
3.261833310728863
 30
0.0
 10
3.693869520694086
 20
3.254777068281097
 30
0.0
 10
3.693312674900967
 20
3.251567332593025
 30
0.0
 10
3.692281884650892
 20
3.246499796883573
 30
0.0
 10
3.691738960955098
 20
3.244296736852289
 30
0.0
 10
3.690995844322423
 20
3.241413124087603
 30
0.0
 10
3.690794535927644
 20
3.240685781978472
 30
0.0
 10
3.690793410176263
 20
3.240639354760321
 30
0.0
  0
LINE
  5
1A1
330
1F
100
AcDbEntity
  8
VISIBLE
100
AcDbLine
 10
3.690793350573976
 20
3.240639227454169
 30
0.0
 11
3.690793350573975
 21
2.735970313541284
 31
0.0
  0
LINE
  5
1A2
330
1F
100
AcDbEntity
  8
VISIBLE
100
AcDbLine
 10
3.89079335057398
 20
4.935970313541282
 30
0.0
 11
3.890793350573975
 21
2.735970313541283
 31
0.0
  0
LINE
  5
1A3
330
1F
100
AcDbEntity
  8
VISIBLE
100
AcDbLine
 10
3.690793350573981
 20
4.935970313541283
 30
0.0
 11
3.690793350573976
 21
3.297968066295065
 31
0.0
  0
LINE
  5
1A4
330
1F
100
AcDbEntity
  8
VISIBLE
100
AcDbLine
 10
4.124126683907313
 20
4.935970313541279
 30
0.0
 11
4.124126683907313
 21
4.948503646874612
 31
0.0
  0
LINE
  5
1A5
330
1F
100
AcDbEntity
  8
VISIBLE
100
AcDbLine
 10
3.690793350573979
 20
4.93597031354128
 30
0.0
 11
4.090793350573979
 21
4.935970313541279
 31
0.0
  0
LINE
  5
1A6
330
1F
100
AcDbEntity
  8
VISIBLE
100
AcDbLine
 10
3.690793350573979
 20
4.93597031354128
 30
0.0
 11
3.657460017240646
 21
4.93597031354128
 31
0.0
  0
LINE
  5
1A7
330
1F
100
AcDbEntity
  8
VISIBLE
100
AcDbLine
 10
3.657460017240646
 20
4.948503646874614
 30
0.0
 11
3.657460017240646
 21
4.93597031354128
 31
0.0
  0
LINE
  5
1A8
330
1F
100
AcDbEntity
  8
VISIBLE
100
AcDbLine
 10
4.090793350573979
 20
4.935970313541279
 30
0.0
 11
4.124126683907313
 21
4.935970313541279
 31
0.0
  0
LINE
  5
1A9
330
1F
100
AcDbEntity
  8
TANGENT_EDGES
100
AcDbLine
 10
3.615706809927167
 20
4.954403646874621
 30
0.0
 11
3.615706809927166
 21
5.730736980207959
 31
0.0
  0
LINE
  5
1AA
330
1F
100
AcDbEntity
  8
TANGENT_EDGES
100
AcDbLine
 10
4.203940143260495
 20
5.738603646874616
 30
0.0
 11
4.203940143260494
 21
4.948403646874616
 31
0.0
  0
LINE
  5
1AB
330
1F
100
AcDbEntity
  8
TANGENT_EDGES
100
AcDbLine
 10
4.072208279376258
 20
2.719303646874616
 30
0.0
 11
4.072208279376259
 21
2.735970313541282
 31
0.0
  0
LINE
  5
1AC
330
1F
100
AcDbEntity
  8
TANGENT_EDGES
100
AcDbLine
 10
3.991643593341126
 20
2.735970313541282
 30
0.0
 11
3.991643593341126
 21
2.719303646874616
 31
0.0
  0
LINE
  5
1AD
330
1F
100
AcDbEntity
  8
TANGENT_EDGES
100
AcDbLine
 10
3.711032306079443
 20
2.735970313541283
 30
0.0
 11
3.711032306079443
 21
2.719303646874616
 31
0.0
  0
LINE
  5
1AE
330
1F
100
AcDbEntity
  8
TANGENT_EDGES
100
AcDbLine
 10
3.791652501254926
 20
2.719303646874616
 30
0.0
 11
3.791652501254926
 21
2.735970313541283
 31
0.0
  0
LINE
  5
1AF
330
1F
100
AcDbEntity
  8
TANGENT_EDGES
100
AcDbLine
 10
4.090793350573979
 20
4.948503646874612
 30
0.0
 11
4.090793350573979
 21
4.935970313541279
 31
0.0
  0
LINE
  5
1B0
330
1F
100
AcDbEntity
  8
TANGENT_EDGES
100
AcDbLine
 10
3.690793350573979
 20
4.93597031354128
 30
0.0
 11
3.690793350573979
 21
4.948503646874613
 31
0.0
  0
ELLIPSE
  5
1B1
330
1F
100
AcDbEntity
  8
VISIBLE
100
AcDbEllipse
 10
2.180576860498833
 20
7.682365344811761
 30
0.0
 11
0.004166666666667319
 21
0.007216878364871173
 31
0.0
210
0.0
220
0.0
230
1.0
 40
0.5773502691896192
 41
2.242414960302822
 42
2.356141858613228
  0
LINE
  5
1B2
330
1F
100
AcDbEntity
  8
VISIBLE
100
AcDbLine
 10
2.445294069149043
 20
7.068945072553332
 30
0.0
 11
2.341585074575014
 21
7.128821488488031
 31
0.0
  0
ELLIPSE
  5
1B3
330
1F
100
AcDbEntity
  8
VISIBLE
100
AcDbEllipse
 10
2.13072583242518
 20
7.069679919476163
 30
0.0
 11
-0.005900000000000016
 21
0.0
 31
0.0
210
0.0
220
0.0
230
1.0
 40
0.5773502691897198
 41
0.0
 42
0.7853981633975139
  0
LINE
  5
1B4
330
1F
100
AcDbEntity
  8
VISIBLE
100
AcDbLine
 10
2.341585074575014
 20
7.049893485665017
 30
0.0
 11
2.445294069149043
 21
6.990017069730317
 31
0.0
  0
LINE
  5
1B5
330
1F
100
AcDbEntity
  8
VISIBLE
100
AcDbLine
 10
2.341585074575014
 20
7.128821488488031
 30
0.0
 11
2.343942097178969
 21
7.13018231612291
 31
0.0
  0
ELLIPSE
  5
1B6
330
1F
100
AcDbEntity
  8
VISIBLE
100
AcDbEllipse
 10
2.532291773461032
 20
7.471709227648635
 30
0.0
 11
0.005900000000000016
 21
0.0
 31
0.0
210
0.0
220
0.0
230
1.0
 40
0.5773502691895692
 41
3.926990816987384
 42
5.139914463526893
  0
LINE
  5
1B7
330
1F
100
AcDbEntity
  8
VISIBLE
100
AcDbLine
 10
2.341585074575014
 20
7.128821488488031
 30
0.0
 11
2.341585074575014
 21
7.13154314375779
 31
0.0
  0
ELLIPSE
  5
1B8
330
1F
100
AcDbEntity
  8
VISIBLE
100
AcDbEllipse
 10
2.13072583242519
 20
7.703553431803059
 30
0.0
 11
0.00196666666667511
 21
-8.881784197001252E-16
 31
0.0
210
0.0
220
0.0
230
1.0
 40
0.5773502691882965
 41
-3.141592653589012
 42
-2.356194490194428
  0
ELLIPSE
  5
1B9
330
1F
100
AcDbEntity
  8
VISIBLE
100
AcDbEllipse
 10
2.13072583242519
 20
7.703553431803059
 30
0.0
 11
0.00196666666667511
 21
-8.881784197001252E-16
 31
0.0
210
0.0
220
0.0
230
1.0
 40
0.5773502691882965
 41
-3.926990816984903
 42
-3.141592653589012
  0
ELLIPSE
  5
1BA
330
1F
100
AcDbEntity
  8
VISIBLE
100
AcDbEllipse
 10
2.869605278313045
 20
8.1301456787851
 30
0.0
 11
-0.002950000000000231
 21
0.005109549882327258
 31
0.0
210
0.0
220
0.0
230
0.9999999999999998
 40
0.5773502691896859
 41
-0.7853981633975263
 42
0.0
  0
LINE
  5
1BB
330
1F
100
AcDbEntity
  8
VISIBLE
100
AcDbLine
 10
2.492505231906259
 20
7.493074221516248
 30
0.0
 11
2.129335189088848
 21
7.702750543498482
 31
0.0
  0
LINE
  5
1BC
330
1F
100
AcDbEntity
  8
VISIBLE
100
AcDbLine
 10
2.202520740941656
 20
7.293481632308456
 30
0.0
 11
2.306229735515686
 21
7.233605216373756
 31
0.0
  0
LINE
  5
1BD
330
1F
100
AcDbEntity
  8
VISIBLE
100
AcDbLine
 10
2.341585074575014
 20
7.210471146580804
 30
0.0
 11
2.341585074575014
 21
7.213192801850563
 31
0.0
  0
LINE
  5
1BE
330
1F
100
AcDbEntity
  8
VISIBLE
100
AcDbLine
 10
2.306229735515686
 20
7.233605216373756
 30
0.0
 11
2.306229735515686
 21
7.230883561103997
 31
0.0
  0
LINE
  5
1BF
330
1F
100
AcDbEntity
  8
VISIBLE
100
AcDbLine
 10
2.495357229257049
 20
7.497850726514668
 30
0.0
 11
2.130725832425182
 21
7.708370761630534
 31
0.0
  0
LINE
  5
1C0
330
1F
100
AcDbEntity
  8
VISIBLE
100
AcDbLine
 10
2.202520740941656
 20
7.209110318945924
 30
0.0
 11
2.202520740941656
 21
7.211831974215682
 31
0.0
  0
LINE
  5
1C1
330
1F
100
AcDbEntity
  8
VISIBLE
100
AcDbLine
 10
2.202520740941656
 20
7.12746066085315
 30
0.0
 11
2.204877763545611
 21
7.12882148848803
 31
0.0
  0
ELLIPSE
  5
1C2
330
1F
100
AcDbEntity
  8
VISIBLE
100
AcDbEllipse
 10
2.177795573826166
 20
7.670362845072123
 30
0.0
 11
0.006250000000000089
 21
0.01082531754730631
 31
0.0
210
0.0
220
0.0
230
1.0
 40
0.5773502691895959
 41
5.022821151595227
 42
5.26860112244683
  0
LINE
  5
1C3
330
1F
100
AcDbEntity
  8
VISIBLE
100
AcDbLine
 10
2.445294069149043
 20
7.07166672782309
 30
0.0
 11
2.445294069149043
 21
7.068945072553332
 31
0.0
  0
LINE
  5
1C4
330
1F
100
AcDbEntity
  8
VISIBLE
100
AcDbLine
 10
2.341585074575014
 20
7.047171830395257
 30
0.0
 11
2.341585074575014
 21
7.049893485665017
 31
0.0
  0
LINE
  5
1C5
330
1F
100
AcDbEntity
  8
VISIBLE
100
AcDbLine
 10
2.341585074575014
 20
7.047171830395257
 30
0.0
 11
2.343942097178969
 21
7.048532658030137
 31
0.0
  0
LINE
  5
1C6
330
1F
100
AcDbEntity
  8
VISIBLE
100
AcDbLine
 10
2.174684194819199
 20
7.676568282832584
 30
0.0
 11
2.174684303997106
 21
7.678963633841811
 31
0.0
  0
LINE
  5
1C7
330
1F
100
AcDbEntity
  8
VISIBLE
100
AcDbLine
 10
2.869605278313045
 20
8.134963008612573
 30
0.0
 11
3.234416449354952
 21
7.924339180808147
 31
0.0
  0
ELLIPSE
  5
1C8
330
1F
100
AcDbEntity
  8
VISIBLE
100
AcDbEllipse
 10
2.180576860498833
 20
7.668757068462966
 30
0.0
 11
0.006250000000000089
 21
0.01082531754730542
 31
0.0
210
0.0
220
0.0
230
0.9999999999999999
 40
0.5773502691895699
 41
5.02282115159524
 42
5.268601122446842
  0
LINE
  5
1C9
330
1F
100
AcDbEntity
  8
VISIBLE
100
AcDbLine
 10
2.306229735515685
 20
7.067584244918451
 30
0.0
 11
2.202520740941656
 21
7.12746066085315
 31
0.0
  0
LINE
  5
1CA
330
1F
100
AcDbEntity
  8
VISIBLE
100
AcDbLine
 10
2.445294069149044
 20
7.150594730646104
 30
0.0
 11
2.341585074575015
 21
7.210471146580804
 31
0.0
  0
LINE
  5
1CB
330
1F
100
AcDbEntity
  8
VISIBLE
100
AcDbLine
 10
2.306229735515686
 20
7.151955558280983
 30
0.0
 11
2.306229735515685
 21
7.149233903011224
 31
0.0
  0
LINE
  5
1CC
330
1F
100
AcDbEntity
  8
VISIBLE
100
AcDbLine
 10
2.202520740941657
 20
7.290759977038697
 30
0.0
 11
2.202520740941656
 21
7.293481632308456
 31
0.0
  0
LINE
  5
1CD
330
1F
100
AcDbEntity
  8
VISIBLE
100
AcDbLine
 10
2.445294069149043
 20
6.990017069730317
 30
0.0
 11
2.445294069149043
 21
6.987295414460558
 31
0.0
  0
LINE
  5
1CE
330
1F
100
AcDbEntity
  8
VISIBLE
100
AcDbLine
 10
2.202520740941656
 20
7.290759977038697
 30
0.0
 11
2.204877763545611
 21
7.292120804673575
 31
0.0
  0
LINE
  5
1CF
330
1F
100
AcDbEntity
  8
VISIBLE
100
AcDbLine
 10
2.445294069149043
 20
6.987295414460558
 30
0.0
 11
2.341585074575014
 21
7.047171830395258
 31
0.0
  0
LINE
  5
1D0
330
1F
100
AcDbEntity
  8
VISIBLE
100
AcDbLine
 10
2.306229735515685
 20
7.07030590018821
 30
0.0
 11
2.306229735515685
 21
7.067584244918451
 31
0.0
  0
ELLIPSE
  5
1D1
330
1F
100
AcDbEntity
  8
VISIBLE
100
AcDbEllipse
 10
2.613868325783916
 20
6.957193907177023
 30
0.0
 11
-0.01041666666666696
 21
0.0
 31
0.0
210
0.0
220
0.0
230
1.0
 40
0.5773502691896062
 41
1.287456119604715
 42
2.596713806648959
  0
LINE
  5
1D2
330
1F
100
AcDbEntity
  8
VISIBLE
100
AcDbLine
 10
2.202520740941656
 20
7.211831974215682
 30
0.0
 11
2.306229735515686
 21
7.151955558280983
 31
0.0
  0
ELLIPSE
  5
1D3
330
1F
100
AcDbEntity
  8
VISIBLE
100
AcDbEllipse
 10
2.130725832425179
 20
7.703553431803067
 30
0.0
 11
0.0009833333333295613
 21
-0.001703183294102573
 31
0.0
210
0.0
220
0.0
230
0.9999999999999998
 40
0.5773502691907582
 41
-3.141592653590132
 42
-2.356194490191201
  0
ELLIPSE
  5
1D4
330
1F
100
AcDbEntity
  8
VISIBLE
100
AcDbEllipse
 10
2.130725832425179
 20
7.703553431803067
 30
0.0
 11
0.0009833333333295613
 21
-0.001703183294102573
 31
0.0
210
0.0
220
0.0
230
0.9999999999999998
 40
0.5773502691907582
 41
-3.926990816986346
 42
-3.141592653590132
  0
LINE
  5
1D5
330
1F
100
AcDbEntity
  8
VISIBLE
100
AcDbLine
 10
2.341585074575014
 20
7.210471146580804
 30
0.0
 11
2.343942097178969
 21
7.211831974215683
 31
0.0
  0
LINE
  5
1D6
330
1F
100
AcDbEntity
  8
VISIBLE
100
AcDbLine
 10
2.130725832425182
 20
7.705159208412218
 30
0.0
 11
2.492575942584382
 21
7.49624494990551
 31
0.0
  0
ELLIPSE
  5
1D7
330
1F
100
AcDbEntity
  8
VISIBLE
100
AcDbEllipse
 10
2.130725832425182
 20
7.70355343180306
 30
0.0
 11
-0.002949999999999786
 21
0.005109549882328146
 31
0.0
210
0.0
220
0.0
230
1.0
 40
0.5773502691896975
 41
0.0
 42
0.785398163397087
  0
ELLIPSE
  5
1D8
330
1F
100
AcDbEntity
  8
VISIBLE
100
AcDbEllipse
 10
2.130725832425182
 20
7.70355343180306
 30
0.0
 11
-0.002949999999999786
 21
0.005109549882328146
 31
0.0
210
0.0
220
0.0
230
1.0
 40
0.5773502691896975
 41
-0.7853981633973538
 42
0.0
  0
LINE
  5
1D9
330
1F
100
AcDbEntity
  8
VISIBLE
100
AcDbLine
 10
2.445294069149044
 20
7.153316385915864
 30
0.0
 11
2.445294069149044
 21
7.150594730646104
 31
0.0
  0
LINE
  5
1DA
330
1F
100
AcDbEntity
  8
VISIBLE
100
AcDbLine
 10
2.341585074575014
 20
7.13154314375779
 30
0.0
 11
2.445294069149043
 21
7.07166672782309
 31
0.0
  0
LINE
  5
1DB
330
1F
100
AcDbEntity
  8
VISIBLE
100
AcDbLine
 10
2.202520740941656
 20
7.12746066085315
 30
0.0
 11
2.202520740941656
 21
7.130182316122909
 31
0.0
  0
LINE
  5
1DC
330
1F
100
AcDbEntity
  8
VISIBLE
100
AcDbLine
 10
2.611823655868944
 20
6.914562606692779
 30
0.0
 11
2.60667346709137
 21
6.91158914381567
 31
0.0
  0
LINE
  5
1DD
330
1F
100
AcDbEntity
  8
VISIBLE
100
AcDbLine
 10
2.306229735515686
 20
7.230883561103997
 30
0.0
 11
2.202520740941657
 21
7.290759977038697
 31
0.0
  0
LINE
  5
1DE
330
1F
100
AcDbEntity
  8
VISIBLE
100
AcDbLine
 10
2.202520740941656
 20
7.13018231612291
 30
0.0
 11
2.306229735515685
 21
7.07030590018821
 31
0.0
  0
LINE
  5
1DF
330
1F
100
AcDbEntity
  8
VISIBLE
100
AcDbLine
 10
2.341585074575015
 20
7.213192801850563
 30
0.0
 11
2.445294069149044
 21
7.153316385915864
 31
0.0
  0
ELLIPSE
  5
1E0
330
1F
100
AcDbEntity
  8
VISIBLE
100
AcDbEllipse
 10
2.130725832425183
 20
7.70355343180306
 30
0.0
 11
-0.005900000000000016
 21
0.0
 31
0.0
210
0.0
220
0.0
230
1.0
 40
0.5773502691897198
 41
0.0
 42
0.7853981633972764
  0
ELLIPSE
  5
1E1
330
1F
100
AcDbEntity
  8
VISIBLE
100
AcDbEllipse
 10
2.130725832425183
 20
7.70355343180306
 30
0.0
 11
-0.005900000000000016
 21
0.0
 31
0.0
210
0.0
220
0.0
230
1.0
 40
0.5773502691897198
 41
-0.785398163397117
 42
0.0
  0
LINE
  5
1E2
330
1F
100
AcDbEntity
  8
VISIBLE
100
AcDbLine
 10
2.126553902416182
 20
7.701144766889324
 30
0.0
 11
2.528119843452031
 21
7.469300562734897
 31
0.0
  0
LINE
  5
1E3
330
1F
100
AcDbEntity
  8
VISIBLE
100
AcDbLine
 10
2.488333301897257
 20
6.858397820884772
 30
0.0
 11
2.12655390241618
 21
7.067271254562426
 31
0.0
  0
LINE
  5
1E4
330
1F
100
AcDbEntity
  8
VISIBLE
100
AcDbLine
 10
2.202520740941656
 20
7.209110318945923
 30
0.0
 11
2.204877763545611
 21
7.210471146580803
 31
0.0
  0
LINE
  5
1E5
330
1F
100
AcDbEntity
  8
VISIBLE
100
AcDbLine
 10
2.129335189088849
 20
7.704356320107639
 30
0.0
 11
2.126553902416182
 21
7.705962096716797
 31
0.0
  0
LINE
  5
1E6
330
1F
100
AcDbEntity
  8
VISIBLE
100
AcDbLine
 10
2.306229735515685
 20
7.149233903011224
 30
0.0
 11
2.202520740941656
 21
7.209110318945924
 31
0.0
  0
LINE
  5
1E7
330
1F
100
AcDbEntity
  8
VISIBLE
100
AcDbLine
 10
2.124825832425186
 20
7.703553431803059
 30
0.0
 11
2.124825832425185
 21
7.069679919476166
 31
0.0
  0
LINE
  5
1E8
330
1F
100
AcDbEntity
  8
VISIBLE
100
AcDbLine
 10
2.866655278313046
 20
8.135255228667424
 30
0.0
 11
2.127775832425185
 21
7.708662981685387
 31
0.0
  0
ELLIPSE
  5
1E9
330
1F
100
AcDbEntity
  8
VISIBLE
100
AcDbEllipse
 10
3.178210247848898
 20
7.677539434481536
 30
0.0
 11
0.06666666666666732
 21
0.1154700538379245
 31
0.0
210
0.0
220
0.0
230
1.0
 40
0.5773502691896277
 41
0.0
 42
3.141592653589799
  0
ELLIPSE
  5
1EA
330
1F
100
AcDbEntity
  8
VISIBLE
100
AcDbEllipse
 10
3.166425134829122
 20
7.684343572655934
 30
0.0
 11
0.06666666666666687
 21
0.1154700538379245
 31
0.0
210
0.0
220
0.0
230
1.0
 40
0.5773502691896316
 41
0.0
 42
3.141592653589788
  0
LINE
  5
1EB
330
1F
100
AcDbEntity
  8
VISIBLE
100
AcDbLine
 10
3.111543581182231
 20
7.562069380643612
 30
0.0
 11
3.099758468162455
 21
7.56887351881801
 31
0.0
  0
LINE
  5
1EC
330
1F
100
AcDbEntity
  8
VISIBLE
100
AcDbLine
 10
3.244876914515565
 20
7.793009488319462
 30
0.0
 11
3.233091801495789
 21
7.79981362649386
 31
0.0
  0
ELLIPSE
  5
1ED
330
1F
100
AcDbEntity
  8
VISIBLE
100
AcDbEllipse
 10
3.181523272906833
 20
7.582833805005091
 30
0.0
 11
0.003150000000000208
 21
0.005455960043841301
 31
0.0
210
0.0
220
0.0
230
1.0
 40
0.5773502691897033
 41
0.0
 42
0.2595949015195984
  0
ELLIPSE
  5
1EE
330
1F
100
AcDbEntity
  8
VISIBLE
100
AcDbEllipse
 10
3.181523272906833
 20
7.582833805005091
 30
0.0
 11
0.003150000000000208
 21
0.005455960043841301
 31
0.0
210
0.0
220
0.0
230
1.0
 40
0.5773502691897033
 41
3.141592653589914
 42
6.283185307179586
  0
ELLIPSE
  5
1EF
330
1F
100
AcDbEntity
  8
VISIBLE
100
AcDbEllipse
 10
3.181523272906833
 20
7.582833805005091
 30
0.0
 11
0.003150000000000208
 21
0.005455960043841301
 31
0.0
210
0.0
220
0.0
230
1.0
 40
0.5773502691897033
 41
0.2595949015195984
 42
3.141592653589914
  0
ELLIPSE
  5
1F0
330
1F
100
AcDbEntity
  8
VISIBLE
100
AcDbEllipse
 10
3.178210247848898
 20
7.677539434481536
 30
0.0
 11
0.04475500077188998
 21
0.07751793522969749
 31
0.0
210
0.0
220
0.0
230
1.0
 40
0.577350269189636
 41
3.181101689667234
 42
6.243676271102132
  0
ELLIPSE
  5
1F1
330
1F
100
AcDbEntity
  8
VISIBLE
100
AcDbEllipse
 10
3.251213308881552
 20
7.761742546014387
 30
0.0
 11
0.003149999999999764
 21
0.00545596004384219
 31
0.0
210
0.0
220
0.0
230
1.0
 40
0.577350269189653
 41
0.0
 42
0.2595949015196005
  0
ELLIPSE
  5
1F2
330
1F
100
AcDbEntity
  8
VISIBLE
100
AcDbEllipse
 10
3.251213308881552
 20
7.761742546014387
 30
0.0
 11
0.003149999999999764
 21
0.00545596004384219
 31
0.0
210
0.0
220
0.0
230
1.0
 40
0.577350269189653
 41
3.141592653589565
 42
6.283185307179586
  0
ELLIPSE
  5
1F3
330
1F
100
AcDbEntity
  8
VISIBLE
100
AcDbEllipse
 10
3.251213308881552
 20
7.761742546014387
 30
0.0
 11
0.003149999999999764
 21
0.00545596004384219
 31
0.0
210
0.0
220
0.0
230
1.0
 40
0.577350269189653
 41
0.2595949015196005
 42
3.141592653589565
  0
ELLIPSE
  5
1F4
330
1F
100
AcDbEntity
  8
VISIBLE
100
AcDbEllipse
 10
3.178210247848898
 20
7.677539434481536
 30
0.0
 11
0.06666666666666732
 21
0.1154700538379245
 31
0.0
210
0.0
220
0.0
230
1.0
 40
0.5773502691896335
 41
0.2595949015196041
 42
3.141592653589784
  0
ELLIPSE
  5
1F5
330
1F
100
AcDbEntity
  8
VISIBLE
100
AcDbEllipse
 10
3.178210247848898
 20
7.677539434481536
 30
0.0
 11
0.06666666666666732
 21
0.1154700538379245
 31
0.0
210
0.0
220
0.0
230
1.0
 40
0.5773502691896335
 41
0.0
 42
0.2595949015196041
  0
ELLIPSE
  5
1F6
330
1F
100
AcDbEntity
  8
VISIBLE
100
AcDbEllipse
 10
3.18174578175483
 20
7.675498193029217
 30
0.0
 11
0.04475500077189043
 21
0.07751793522969841
 31
0.0
210
0.0
220
0.0
230
1.0
 40
0.5773502691896295
 41
0.259594901519593
 42
3.141592653589775
  0
ELLIPSE
  5
1F7
330
1F
100
AcDbEntity
  8
VISIBLE
100
AcDbEllipse
 10
3.18174578175483
 20
7.675498193029217
 30
0.0
 11
0.04475500077189043
 21
0.07751793522969841
 31
0.0
210
0.0
220
0.0
230
1.0
 40
0.5773502691896295
 41
3.141592653589775
 42
6.283185307179586
  0
ELLIPSE
  5
1F8
330
1F
100
AcDbEntity
  8
VISIBLE
100
AcDbEllipse
 10
3.18174578175483
 20
7.675498193029217
 30
0.0
 11
0.04475500077189043
 21
0.07751793522969841
 31
0.0
210
0.0
220
0.0
230
1.0
 40
0.5773502691896295
 41
0.0
 42
0.259594901519593
  0
ELLIPSE
  5
1F9
330
1F
100
AcDbEntity
  8
VISIBLE
100
AcDbEllipse
 10
3.18174578175483
 20
7.675498193029217
 30
0.0
 11
0.06666666666666776
 21
0.1154700538379254
 31
0.0
210
0.0
220
0.0
230
1.0
 40
0.5773502691896292
 41
0.0
 42
0.2595949015196038
  0
ELLIPSE
  5
1FA
330
1F
100
AcDbEntity
  8
VISIBLE
100
AcDbEllipse
 10
3.18174578175483
 20
7.675498193029217
 30
0.0
 11
0.06666666666666776
 21
0.1154700538379254
 31
0.0
210
0.0
220
0.0
230
1.0
 40
0.5773502691896292
 41
3.141592653589792
 42
6.283185307179586
  0
ELLIPSE
  5
1FB
330
1F
100
AcDbEntity
  8
VISIBLE
100
AcDbEllipse
 10
3.18174578175483
 20
7.675498193029217
 30
0.0
 11
0.06666666666666776
 21
0.1154700538379254
 31
0.0
210
0.0
220
0.0
230
1.0
 40
0.5773502691896292
 41
0.2595949015196038
 42
3.141592653589792
  0
ELLIPSE
  5
1FC
330
1F
100
AcDbEntity
  8
VISIBLE
100
AcDbEllipse
 10
3.112432073351238
 20
7.681924596656405
 30
0.0
 11
0.003150000000000208
 21
0.005455960043841301
 31
0.0
210
0.0
220
0.0
230
1.0
 40
0.5773502691896424
 41
0.0
 42
0.2595949015196246
  0
ELLIPSE
  5
1FD
330
1F
100
AcDbEntity
  8
VISIBLE
100
AcDbEllipse
 10
3.112432073351238
 20
7.681924596656405
 30
0.0
 11
0.003150000000000208
 21
0.005455960043841301
 31
0.0
210
0.0
220
0.0
230
1.0
 40
0.5773502691896424
 41
3.14159265359002
 42
6.283185307179586
  0
ELLIPSE
  5
1FE
330
1F
100
AcDbEntity
  8
VISIBLE
100
AcDbEllipse
 10
3.112432073351238
 20
7.681924596656405
 30
0.0
 11
0.003150000000000208
 21
0.005455960043841301
 31
0.0
210
0.0
220
0.0
230
1.0
 40
0.5773502691896424
 41
0.2595949015196246
 42
3.14159265359002
  0
LINE
  5
1FF
330
1F
100
AcDbEntity
  8
VISIBLE
100
AcDbLine
 10
3.11154358118223
 20
7.562069380643612
 30
0.0
 11
3.115079115088163
 21
7.560028139191292
 31
0.0
  0
LINE
  5
200
330
1F
100
AcDbEntity
  8
VISIBLE
100
AcDbLine
 10
3.244876914515565
 20
7.793009488319461
 30
0.0
 11
3.248412448421498
 21
7.790968246867141
 31
0.0
  0
LINE
  5
201
330
1F
100
AcDbEntity
  8
VISIBLE
100
AcDbLine
 10
2.627114792818138
 20
6.951016410965864
 30
0.0
 11
2.627114792818138
 21
6.929731744253956
 31
0.0
  0
ELLIPSE
  5
202
330
1F
100
AcDbEntity
  8
VISIBLE
100
AcDbEllipse
 10
3.243971178499248
 20
7.916454915279957
 30
0.0
 11
0.01666666666666661
 21
0.0
 31
0.0
210
0.0
220
0.0
230
1.0
 40
0.5773502691896779
 41
0.7853981633974154
 42
2.356194490192378
  0
ELLIPSE
  5
203
330
1F
100
AcDbEntity
  8
VISIBLE
100
AcDbEllipse
 10
2.538255040649028
 20
6.819777532606885
 30
0.0
 11
-0.005900000000000016
 21
0.0
 31
0.0
210
0.0
220
0.0
230
1.0
 40
0.5773502691895692
 41
0.7853981633974069
 42
2.356194490192333
  0
ELLIPSE
  5
204
330
1F
100
AcDbEntity
  8
VISIBLE
100
AcDbEllipse
 10
2.609248561480157
 20
6.933270557355839
 30
0.0
 11
0.01250000000000018
 21
0.02165063509461085
 31
0.0
210
0.0
220
0.0
230
0.9999999999999999
 40
0.5773502691896161
 41
3.253074899341244
 42
4.949336511765324
  0
LINE
  5
205
330
1F
100
AcDbEntity
  8
VISIBLE
100
AcDbLine
 10
2.492505231906259
 20
7.492992571858144
 30
0.0
 11
2.492505231906259
 21
7.49620412507646
 31
0.0
  0
LINE
  5
206
330
1F
100
AcDbEntity
  8
VISIBLE
100
AcDbLine
 10
2.596944903487512
 20
6.912313150527497
 30
0.0
 11
2.596944903487512
 21
6.933597817239407
 31
0.0
  0
ELLIPSE
  5
207
330
1F
100
AcDbEntity
  8
VISIBLE
100
AcDbEllipse
 10
2.538255040649028
 20
7.464973130855973
 30
0.0
 11
-0.001966666666665784
 21
8.881784197001252E-16
 31
0.0
210
0.0
220
0.0
230
1.0
 40
0.5773502691892278
 41
0.7853981633975927
 42
2.356194490193402
  0
ELLIPSE
  5
208
330
1F
100
AcDbEntity
  8
VISIBLE
100
AcDbEllipse
 10
3.289720987242018
 20
7.898832197408266
 30
0.0
 11
0.002949999999999786
 21
-0.005109549882327258
 31
0.0
210
0.0
220
0.0
230
0.9999999999999998
 40
0.5773502691897728
 41
0.7853981633973572
 42
2.356194490192418
  0
LINE
  5
209
330
1F
100
AcDbEntity
  8
VISIBLE
100
AcDbLine
 10
2.534083110640027
 20
6.817368867693149
 30
0.0
 11
2.538255040649028
 21
6.814960202779411
 31
0.0
  0
LINE
  5
20A
330
1F
100
AcDbEntity
  8
VISIBLE
100
AcDbLine
 10
2.488333301897259
 20
7.48897813033525
 30
0.0
 11
2.534083110640028
 21
7.462564465942237
 31
0.0
  0
LINE
  5
20B
330
1F
100
AcDbEntity
  8
VISIBLE
100
AcDbLine
 10
3.293892917251019
 20
7.89642353249453
 30
0.0
 11
3.293892917251018
 21
7.251227934245441
 31
0.0
  0
LINE
  5
20C
330
1F
100
AcDbEntity
  8
VISIBLE
100
AcDbLine
 10
2.627114792818138
 20
7.447990663223874
 30
0.0
 11
2.627114792818138
 21
7.426705996511965
 31
0.0
  0
LINE
  5
20D
330
1F
100
AcDbEntity
  8
VISIBLE
100
AcDbLine
 10
2.542426970658029
 20
7.462564465942237
 30
0.0
 11
2.539645683985362
 21
7.464170242551395
 31
0.0
  0
LINE
  5
20E
330
1F
100
AcDbEntity
  8
VISIBLE
100
AcDbLine
 10
2.596944903487512
 20
7.409287402785507
 30
0.0
 11
2.596944903487512
 21
7.430572069497416
 31
0.0
  0
LINE
  5
20F
330
1F
100
AcDbEntity
  8
VISIBLE
100
AcDbLine
 10
2.538255040649029
 20
7.469790460683448
 30
0.0
 11
2.492505231906259
 21
7.49620412507646
 31
0.0
  0
ELLIPSE
  5
210
330
1F
100
AcDbEntity
  8
VISIBLE
100
AcDbEllipse
 10
2.538255040649028
 20
6.819777532606885
 30
0.0
 11
0.002949999999999786
 21
-0.005109549882328146
 31
0.0
210
0.0
220
0.0
230
1.0
 40
0.5773502691896975
 41
0.0
 42
0.7853981633974563
  0
ELLIPSE
  5
211
330
1F
100
AcDbEntity
  8
VISIBLE
100
AcDbEllipse
 10
2.538255040649028
 20
6.819777532606885
 30
0.0
 11
0.002949999999999786
 21
-0.005109549882328146
 31
0.0
210
0.0
220
0.0
230
1.0
 40
0.5773502691896975
 41
-0.7853981633973538
 42
0.0
  0
ELLIPSE
  5
212
330
1F
100
AcDbEntity
  8
VISIBLE
100
AcDbEllipse
 10
2.538255040649029
 20
7.464973130855975
 30
0.0
 11
0.005899999999999572
 21
0.0
 31
0.0
210
0.0
220
0.0
230
1.0
 40
0.5773502691896127
 41
3.926990816987346
 42
5.497787143781979
  0
ELLIPSE
  5
213
330
1F
100
AcDbEntity
  8
VISIBLE
100
AcDbEllipse
 10
2.612029848152825
 20
6.931664780746681
 30
0.0
 11
0.01250000000000018
 21
0.02165063509461085
 31
0.0
210
0.0
220
0.0
230
0.9999999999999998
 40
0.5773502691896314
 41
3.141592653589793
 42
4.949336511765329
  0
ELLIPSE
  5
214
330
1F
100
AcDbEntity
  8
VISIBLE
100
AcDbEllipse
 10
2.612029848152825
 20
6.931664780746681
 30
0.0
 11
0.01250000000000018
 21
0.02165063509461085
 31
0.0
210
0.0
220
0.0
230
0.9999999999999998
 40
0.5773502691896314
 41
2.904645122209191
 42
3.141592653589793
  0
LINE
  5
215
330
1F
100
AcDbEntity
  8
VISIBLE
100
AcDbLine
 10
2.627114792818138
 20
7.426705996511965
 30
0.0
 11
2.624333506145471
 21
7.428311773121123
 31
0.0
  0
LINE
  5
216
330
1F
100
AcDbEntity
  8
VISIBLE
100
AcDbLine
 10
2.488333301897258
 20
6.843782532086161
 30
0.0
 11
2.488333301897259
 21
7.48897813033525
 31
0.0
  0
LINE
  5
217
330
1F
100
AcDbEntity
  8
VISIBLE
100
AcDbLine
 10
2.627114792818138
 20
6.929731744253956
 30
0.0
 11
2.624333506145471
 21
6.931337520863114
 31
0.0
  0
LINE
  5
218
330
1F
100
AcDbEntity
  8
VISIBLE
100
AcDbLine
 10
2.492505231906259
 20
7.49620412507646
 30
0.0
 11
3.232186065479473
 21
7.923259053454355
 31
0.0
  0
LINE
  5
219
330
1F
100
AcDbEntity
  8
VISIBLE
100
AcDbLine
 10
2.627114792818138
 20
7.447990663223874
 30
0.0
 11
2.624333506145471
 21
7.449596439833032
 31
0.0
  0
ELLIPSE
  5
21A
330
1F
100
AcDbEntity
  8
VISIBLE
100
AcDbEllipse
 10
2.612029848152825
 20
7.42863903300469
 30
0.0
 11
0.01250000000000018
 21
0.02165063509461085
 31
0.0
210
0.0
220
0.0
230
0.9999999999999998
 40
0.5773502691896314
 41
3.141592653589819
 42
4.949336511765329
  0
ELLIPSE
  5
21B
330
1F
100
AcDbEntity
  8
VISIBLE
100
AcDbEllipse
 10
2.612029848152825
 20
7.42863903300469
 30
0.0
 11
0.01250000000000018
 21
0.02165063509461085
 31
0.0
210
0.0
220
0.0
230
0.9999999999999998
 40
0.5773502691896314
 41
2.904645122209153
 42
3.141592653589819
  0
LINE
  5
21C
330
1F
100
AcDbEntity
  8
VISIBLE
100
AcDbLine
 10
2.534083110640027
 20
6.817368867693149
 30
0.0
 11
2.488333301897258
 21
6.843782532086161
 31
0.0
  0
ELLIPSE
  5
21D
330
1F
100
AcDbEntity
  8
VISIBLE
100
AcDbEllipse
 10
3.289720987242017
 20
7.253636599159178
 30
0.0
 11
0.00295000000000023
 21
-0.005109549882328146
 31
0.0
210
0.0
220
0.0
230
1.0
 40
0.5773502691896757
 41
0.0
 42
0.7853981633974526
  0
LINE
  5
21E
330
1F
100
AcDbEntity
  8
VISIBLE
100
AcDbLine
 10
2.536864397312695
 20
7.464170242551395
 30
0.0
 11
2.491114588569926
 21
7.490583906944408
 31
0.0
  0
ELLIPSE
  5
21F
330
1F
100
AcDbEntity
  8
VISIBLE
100
AcDbEllipse
 10
2.538255040649028
 20
7.464973130855974
 30
0.0
 11
-0.0009833333333340022
 21
0.001703183294109678
 31
0.0
210
0.0
220
0.0
230
1.0
 40
0.5773502691899248
 41
3.926990816987373
 42
5.49778714378214
  0
ELLIPSE
  5
220
330
1F
100
AcDbEntity
  8
VISIBLE
100
AcDbEllipse
 10
2.538255040649029
 20
7.464973130855975
 30
0.0
 11
-0.00295000000000023
 21
0.005109549882328146
 31
0.0
210
0.0
220
0.0
230
1.0
 40
0.5773502691896757
 41
3.926990816987007
 42
5.497787143782138
  0
LINE
  5
221
330
1F
100
AcDbEntity
  8
VISIBLE
100
AcDbLine
 10
3.255756291519024
 20
7.923259053454355
 30
0.0
 11
3.289720987242018
 21
7.90364952723574
 31
0.0
  0
ELLIPSE
  5
222
330
1F
100
AcDbEntity
  8
VISIBLE
100
AcDbEllipse
 10
2.612029848152825
 20
7.42863903300469
 30
0.0
 11
0.01250000000000018
 21
0.02165063509461085
 31
0.0
210
0.0
220
0.0
230
0.9999999999999998
 40
0.5773502691896314
 41
0.0
 42
1.807743858175535
  0
ELLIPSE
  5
223
330
1F
100
AcDbEntity
  8
VISIBLE
100
AcDbEllipse
 10
2.612029848152825
 20
7.42863903300469
 30
0.0
 11
0.01250000000000018
 21
0.02165063509461085
 31
0.0
210
0.0
220
0.0
230
0.9999999999999998
 40
0.5773502691896314
 41
-0.2369475313806628
 42
0.0
  0
LINE
  5
224
330
1F
100
AcDbEntity
  8
VISIBLE
100
AcDbLine
 10
2.624333506145471
 20
6.931337520863114
 30
0.0
 11
2.624333506145471
 21
6.952622187575022
 31
0.0
  0
LINE
  5
225
330
1F
100
AcDbEntity
  8
VISIBLE
100
AcDbLine
 10
2.491114588569926
 20
7.490583906944408
 30
0.0
 11
2.488333301897259
 21
7.48897813033525
 31
0.0
  0
LINE
  5
226
330
1F
100
AcDbEntity
  8
VISIBLE
100
AcDbLine
 10
2.624333506145471
 20
7.428311773121123
 30
0.0
 11
2.624333506145471
 21
7.449596439833032
 31
0.0
  0
ELLIPSE
  5
227
330
1F
100
AcDbEntity
  8
VISIBLE
100
AcDbEllipse
 10
2.609248561480157
 20
6.933270557355839
 30
0.0
 11
0.01250000000000018
 21
0.02165063509461085
 31
0.0
210
0.0
220
0.0
230
0.9999999999999999
 40
0.5773502691896161
 41
-0.2369475313806451
 42
-0.1114822457514289
  0
LINE
  5
228
330
1F
100
AcDbEntity
  8
VISIBLE
100
AcDbLine
 10
2.492505231906259
 20
7.492992571858144
 30
0.0
 11
2.538255040649029
 21
7.466578907465133
 31
0.0
  0
ELLIPSE
  5
229
330
1F
100
AcDbEntity
  8
VISIBLE
100
AcDbEllipse
 10
2.612029848152825
 20
6.931664780746681
 30
0.0
 11
0.01250000000000018
 21
0.02165063509461085
 31
0.0
210
0.0
220
0.0
230
0.9999999999999998
 40
0.5773502691896314
 41
0.0
 42
1.807743858175535
  0
ELLIPSE
  5
22A
330
1F
100
AcDbEntity
  8
VISIBLE
100
AcDbEllipse
 10
2.612029848152825
 20
6.931664780746681
 30
0.0
 11
0.01250000000000018
 21
0.02165063509461085
 31
0.0
210
0.0
220
0.0
230
0.9999999999999998
 40
0.5773502691896314
 41
-0.2369475313806628
 42
0.0
  0
ELLIPSE
  5
22B
330
1F
100
AcDbEntity
  8
VISIBLE
100
AcDbEllipse
 10
2.609248561480158
 20
7.430244809613848
 30
0.0
 11
0.01249999999999973
 21
0.02165063509461085
 31
0.0
210
0.0
220
0.0
230
1.0
 40
0.5773502691896366
 41
3.253074899341187
 42
4.94933651176532
  0
ELLIPSE
  5
22C
330
1F
100
AcDbEntity
  8
VISIBLE
100
AcDbEllipse
 10
2.609248561480158
 20
7.430244809613848
 30
0.0
 11
0.01249999999999973
 21
0.02165063509461085
 31
0.0
210
0.0
220
0.0
230
1.0
 40
0.5773502691896366
 41
-0.2369475313806253
 42
-0.1114822457514513
  0
LINE
  5
22D
330
1F
100
AcDbEntity
  8
VISIBLE
100
AcDbLine
 10
2.627114792818138
 20
6.951016410965864
 30
0.0
 11
2.624333506145471
 21
6.952622187575022
 31
0.0
  0
LINE
  5
22E
330
1F
100
AcDbEntity
  8
VISIBLE
100
AcDbLine
 10
2.541205040649028
 20
6.814667982724557
 30
0.0
 11
3.292670987242017
 21
7.248527049276849
 31
0.0
  0
ELLIPSE
  5
22F
330
1F
100
AcDbEntity
  8
VISIBLE
100
AcDbEllipse
 10
3.288424624809842
 20
7.896124150414858
 30
0.0
 11
-0.008199999999999541
 21
0.0
 31
0.0
210
0.0
220
0.0
230
1.0
 40
0.5773502691895995
 41
-3.141592653589793
 42
-2.150458788024022
  0
ELLIPSE
  5
230
330
1F
100
AcDbEntity
  8
VISIBLE
100
AcDbEllipse
 10
3.288424624809842
 20
7.896124150414858
 30
0.0
 11
-0.008199999999999541
 21
0.0
 31
0.0
210
0.0
220
0.0
230
1.0
 40
0.5773502691895995
 41
2.356194490192375
 42
3.141592653589793
  0
LINE
  5
231
330
1F
100
AcDbEntity
  8
VISIBLE
100
AcDbLine
 10
3.293892917251018
 20
7.258440320710304
 30
0.0
 11
3.294222900415572
 21
7.258630836579187
 31
0.0
  0
LINE
  5
232
330
1F
100
AcDbEntity
  8
VISIBLE
100
AcDbLine
 10
3.294222900415573
 20
7.892776514433054
 30
0.0
 11
3.293892917251018
 21
7.892585998564171
 31
0.0
  0
ELLIPSE
  5
233
330
1F
100
AcDbEntity
  8
VISIBLE
100
AcDbEllipse
 10
3.288424624809842
 20
7.26197847256099
 30
0.0
 11
-0.008199999999999985
 21
0.0
 31
0.0
210
0.0
220
0.0
230
1.0
 40
0.5773502691896766
 41
2.356194490192365
 42
3.141592653589793
  0
LINE
  5
234
330
1F
100
AcDbEntity
  8
VISIBLE
100
AcDbLine
 10
3.296624624809843
 20
7.896124150414858
 30
0.0
 11
3.296624624809841
 21
7.261978472560989
 31
0.0
  0
ELLIPSE
  5
235
330
1F
100
AcDbEntity
  8
VISIBLE
100
AcDbEllipse
 10
3.190231063129069
 20
7.49369162100931
 30
0.0
 11
-0.01769546583931758
 21
-0.03064944589729723
 31
0.0
210
0.0
220
0.0
230
1.0
 40
0.5773502691896282
 41
-3.141592653589833
 42
-0.7853981633974487
  0
ELLIPSE
  5
236
330
1F
100
AcDbEntity
  8
VISIBLE
100
AcDbEllipse
 10
3.190231063129069
 20
7.49369162100931
 30
0.0
 11
-0.01769546583931758
 21
-0.03064944589729723
 31
0.0
210
0.0
220
0.0
230
1.0
 40
0.5773502691896282
 41
0.0
 42
3.141592653589754
  0
ELLIPSE
  5
237
330
1F
100
AcDbEntity
  8
VISIBLE
100
AcDbEllipse
 10
3.190231063129069
 20
7.49369162100931
 30
0.0
 11
-0.01769546583931758
 21
-0.03064944589729723
 31
0.0
210
0.0
220
0.0
230
1.0
 40
0.5773502691896282
 41
-0.7853981633974485
 42
0.0
  0
ELLIPSE
  5
238
330
1F
100
AcDbEntity
  8
VISIBLE
100
AcDbEllipse
 10
3.166425134829122
 20
7.507435980121593
 30
0.0
 11
-0.01945000000000086
 21
-0.03368838820721365
 31
0.0
210
0.0
220
0.0
230
0.9999999999999999
 40
0.5773502691896387
 41
-3.141592653589756
 42
0.0
  0
ELLIPSE
  5
239
330
1F
100
AcDbEntity
  8
VISIBLE
100
AcDbEllipse
 10
3.189288254087487
 20
7.494235952063262
 30
0.0
 11
-0.01769546583931758
 21
-0.03064944589729723
 31
0.0
210
0.0
220
0.0
230
1.0
 40
0.577350269189639
 41
0.0266430000052733
 42
3.11494965358451
  0
ELLIPSE
  5
23A
330
1F
100
AcDbEntity
  8
VISIBLE
100
AcDbEllipse
 10
3.190231063129069
 20
7.49369162100931
 30
0.0
 11
-0.01944999999999997
 21
-0.03368838820721454
 31
0.0
210
0.0
220
0.0
230
1.0
 40
0.5773502691896439
 41
0.7853981633974338
 42
3.14159265358976
  0
ELLIPSE
  5
23B
330
1F
100
AcDbEntity
  8
VISIBLE
100
AcDbEllipse
 10
3.190231063129069
 20
7.49369162100931
 30
0.0
 11
-0.01944999999999997
 21
-0.03368838820721454
 31
0.0
210
0.0
220
0.0
230
1.0
 40
0.5773502691896439
 41
-3.141592653589826
 42
0.0
  0
ELLIPSE
  5
23C
330
1F
100
AcDbEntity
  8
VISIBLE
100
AcDbEllipse
 10
3.190231063129069
 20
7.49369162100931
 30
0.0
 11
-0.01944999999999997
 21
-0.03368838820721454
 31
0.0
210
0.0
220
0.0
230
1.0
 40
0.5773502691896439
 41
0.0
 42
0.7853981633974338
  0
LINE
  5
23D
330
1F
100
AcDbEntity
  8
VISIBLE
100
AcDbLine
 10
3.185875134829123
 20
7.541124368328807
 30
0.0
 11
3.20968106312907
 21
7.527380009216524
 31
0.0
  0
LINE
  5
23E
330
1F
100
AcDbEntity
  8
VISIBLE
100
AcDbLine
 10
3.146975134829122
 20
7.473747591914378
 30
0.0
 11
3.170781063129069
 21
7.460003232802095
 31
0.0
  0
ELLIPSE
  5
23F
330
1F
100
AcDbEntity
  8
VISIBLE
100
AcDbEllipse
 10
2.342498876238373
 20
5.154932545833549
 30
0.0
 11
-0.1999999999999997
 21
-8.881784197001252E-16
 31
0.0
210
0.0
220
0.0
230
1.0
 40
0.5773502691896367
 41
-2.877179466004384
 42
-1.830029471519899
  0
ELLIPSE
  5
240
330
1F
100
AcDbEntity
  8
VISIBLE
100
AcDbEllipse
 10
2.697486281108401
 20
5.360949039370751
 30
0.0
 11
0.3506444751154754
 21
0.08075058774996879
 31
0.0
210
0.0
220
0.0
230
0.9999999999999998
 40
0.5351112396282028
 41
3.018979040804711
 42
3.019012536012443
  0
ELLIPSE
  5
241
330
1F
100
AcDbEntity
  8
VISIBLE
100
AcDbEllipse
 10
2.697486281108401
 20
5.360949039370751
 30
0.0
 11
0.3506444751154754
 21
0.08075058774996879
 31
0.0
210
0.0
220
0.0
230
0.9999999999999998
 40
0.5351112396282028
 41
1.95307247746262
 42
3.018979040804711
  0
ELLIPSE
  5
242
330
1F
100
AcDbEntity
  8
VISIBLE
100
AcDbEllipse
 10
2.697486281108401
 20
5.360949039370751
 30
0.0
 11
0.3506444751154754
 21
0.08075058774996879
 31
0.0
210
0.0
220
0.0
230
0.9999999999999998
 40
0.5351112396282028
 41
1.169331560556818
 42
1.365704085380964
  0
ELLIPSE
  5
243
330
1F
100
AcDbEntity
  8
VISIBLE
100
AcDbEllipse
 10
3.052473685978429
 20
5.566965532907953
 30
0.0
 11
0.1999999999999997
 21
8.881784197001252E-16
 31
0.0
210
0.0
220
0.0
230
1.0
 40
0.5773502691896367
 41
3.406005841175201
 42
4.453155835659687
  0
ELLIPSE
  5
244
330
1F
100
AcDbEntity
  8
VISIBLE
100
AcDbEllipse
 10
2.75569739489387
 20
5.50664517649302
 30
0.0
 11
0.01666666666666661
 21
8.881784197001252E-16
 31
0.0
210
0.0
220
0.0
230
1.0
 40
0.5773502691896246
 41
0.7879881848276533
 42
2.35619449019227
  0
ELLIPSE
  5
245
330
1F
100
AcDbEntity
  8
VISIBLE
100
AcDbEllipse
 10
2.75569739489387
 20
5.50664517649302
 30
0.0
 11
0.01666666666666661
 21
8.881784197001252E-16
 31
0.0
210
0.0
220
0.0
230
1.0
 40
0.5773502691896246
 41
0.7853981633974
 42
0.7879881848276533
  0
ELLIPSE
  5
246
330
1F
100
AcDbEntity
  8
VISIBLE
100
AcDbEllipse
 10
2.599897816589928
 20
5.181560640332564
 30
0.0
 11
-0.06666666666666643
 21
-8.881784197001252E-16
 31
0.0
210
0.0
220
0.0
230
1.0
 40
0.5773502691896379
 41
0.2644131875853951
 42
1.575941529117798
  0
ELLIPSE
  5
247
330
1F
100
AcDbEntity
  8
VISIBLE
100
AcDbEllipse
 10
2.599897816589928
 20
5.195168916681359
 30
0.0
 11
-0.06666666666666643
 21
0.0
 31
0.0
210
0.0
220
0.0
230
1.0
 40
0.5773502691896246
 41
0.2644131875853972
 42
1.575941529117806
  0
ELLIPSE
  5
248
330
1F
100
AcDbEntity
  8
VISIBLE
100
AcDbEllipse
 10
2.97310438249872
 20
5.395381990683015
 30
0.0
 11
0.01666666666666661
 21
0.0
 31
0.0
210
0.0
220
0.0
230
1.0
 40
0.5773502691896246
 41
0.7879881848276498
 42
3.141592653589793
  0
ELLIPSE
  5
249
330
1F
100
AcDbEntity
  8
VISIBLE
100
AcDbEllipse
 10
2.97310438249872
 20
5.395381990683015
 30
0.0
 11
0.01666666666666661
 21
0.0
 31
0.0
210
0.0
220
0.0
230
1.0
 40
0.5773502691896246
 41
3.141592653589793
 42
6.283185307179586
  0
ELLIPSE
  5
24A
330
1F
100
AcDbEntity
  8
VISIBLE
100
AcDbEllipse
 10
2.97310438249872
 20
5.395381990683015
 30
0.0
 11
0.01666666666666661
 21
0.0
 31
0.0
210
0.0
220
0.0
230
1.0
 40
0.5773502691896246
 41
0.0
 42
0.7879881848276498
  0
ELLIPSE
  5
24B
330
1F
100
AcDbEntity
  8
VISIBLE
100
AcDbEllipse
 10
2.697486281108401
 20
5.347340763021956
 30
0.0
 11
0.3506444751154749
 21
0.08075058774996791
 31
0.0
210
0.0
220
0.0
230
1.0
 40
0.5351112396282036
 41
4.310924214146612
 42
6.160571694394508
  0
ELLIPSE
  5
24C
330
1F
100
AcDbEntity
  8
VISIBLE
100
AcDbEllipse
 10
2.410856048270921
 20
5.290140048378017
 30
0.0
 11
-0.06666666666666643
 21
-8.881784197001252E-16
 31
0.0
210
0.0
220
0.0
230
1.0
 40
0.5773502691896513
 41
0.0000348405374947
 42
1.311563182069884
  0
ELLIPSE
  5
24D
330
1F
100
AcDbEntity
  8
VISIBLE
100
AcDbEllipse
 10
2.639275167322932
 20
5.201644625899686
 30
0.0
 11
0.01666666666666616
 21
0.0
 31
0.0
210
0.0
220
0.0
230
1.0
 40
0.5773502691896933
 41
0.7879881848275903
 42
3.141592653589793
  0
ELLIPSE
  5
24E
330
1F
100
AcDbEntity
  8
VISIBLE
100
AcDbEllipse
 10
2.639275167322932
 20
5.201644625899686
 30
0.0
 11
0.01666666666666616
 21
0.0
 31
0.0
210
0.0
220
0.0
230
1.0
 40
0.5773502691896933
 41
3.141592653589793
 42
6.283185307179586
  0
ELLIPSE
  5
24F
330
1F
100
AcDbEntity
  8
VISIBLE
100
AcDbEllipse
 10
2.639275167322932
 20
5.201644625899686
 30
0.0
 11
0.01666666666666616
 21
0.0
 31
0.0
210
0.0
220
0.0
230
1.0
 40
0.5773502691896933
 41
0.0
 42
0.7879881848275903
  0
ELLIPSE
  5
250
330
1F
100
AcDbEntity
  8
VISIBLE
100
AcDbEllipse
 10
2.984116513945881
 20
5.418149754014689
 30
0.0
 11
0.06666666666666643
 21
8.881784197001252E-16
 31
0.0
210
0.0
220
0.0
230
1.0
 40
0.5773502691896379
 41
0.000034840537495
 42
1.311563182069889
  0
ELLIPSE
  5
251
330
1F
100
AcDbEntity
  8
VISIBLE
100
AcDbEllipse
 10
2.97310438249872
 20
5.38177371433422
 30
0.0
 11
0.01666666666666616
 21
8.881784197001252E-16
 31
0.0
210
0.0
220
0.0
230
1.0
 40
0.57735026918964
 41
0.787988184827659
 42
2.356194490192303
  0
ELLIPSE
  5
252
330
1F
100
AcDbEntity
  8
VISIBLE
100
AcDbEllipse
 10
2.97310438249872
 20
5.38177371433422
 30
0.0
 11
0.01666666666666616
 21
8.881784197001252E-16
 31
0.0
210
0.0
220
0.0
230
1.0
 40
0.57735026918964
 41
0.7853981633974055
 42
0.787988184827659
  0
ELLIPSE
  5
253
330
1F
100
AcDbEntity
  8
VISIBLE
100
AcDbEllipse
 10
2.410856048270921
 20
5.303748324726811
 30
0.0
 11
-0.06666666666666687
 21
0.0
 31
0.0
210
0.0
220
0.0
230
1.0
 40
0.5773502691896208
 41
0.0000348405374947
 42
1.3115631820699
  0
ELLIPSE
  5
254
330
1F
100
AcDbEntity
  8
VISIBLE
100
AcDbEllipse
 10
2.75569739489387
 20
5.520253452841816
 30
0.0
 11
0.01666666666666661
 21
0.0
 31
0.0
210
0.0
220
0.0
230
1.0
 40
0.5773502691896246
 41
0.7879881848276498
 42
3.141592653589793
  0
ELLIPSE
  5
255
330
1F
100
AcDbEntity
  8
VISIBLE
100
AcDbEllipse
 10
2.75569739489387
 20
5.520253452841816
 30
0.0
 11
0.01666666666666661
 21
0.0
 31
0.0
210
0.0
220
0.0
230
1.0
 40
0.5773502691896246
 41
3.141592653589793
 42
6.283185307179586
  0
ELLIPSE
  5
256
330
1F
100
AcDbEntity
  8
VISIBLE
100
AcDbEllipse
 10
2.75569739489387
 20
5.520253452841816
 30
0.0
 11
0.01666666666666661
 21
0.0
 31
0.0
210
0.0
220
0.0
230
1.0
 40
0.5773502691896246
 41
0.0
 42
0.7879881848276498
  0
ELLIPSE
  5
257
330
1F
100
AcDbEntity
  8
VISIBLE
100
AcDbEllipse
 10
2.421868179718082
 20
5.312907811709691
 30
0.0
 11
0.01666666666666661
 21
0.0
 31
0.0
210
0.0
220
0.0
230
1.0
 40
0.5773502691896246
 41
0.7879881848277148
 42
2.356194490192332
  0
ELLIPSE
  5
258
330
1F
100
AcDbEntity
  8
VISIBLE
100
AcDbEllipse
 10
2.421868179718082
 20
5.312907811709691
 30
0.0
 11
0.01666666666666661
 21
0.0
 31
0.0
210
0.0
220
0.0
230
1.0
 40
0.5773502691896246
 41
0.7853981633974616
 42
0.7879881848277148
  0
ELLIPSE
  5
259
330
1F
100
AcDbEntity
  8
VISIBLE
100
AcDbEllipse
 10
2.639275167322932
 20
5.188036349550891
 30
0.0
 11
0.01666666666666661
 21
0.0
 31
0.0
210
0.0
220
0.0
230
1.0
 40
0.5773502691896246
 41
0.7879881848277148
 42
2.356194490192332
  0
ELLIPSE
  5
25A
330
1F
100
AcDbEntity
  8
VISIBLE
100
AcDbEllipse
 10
2.639275167322932
 20
5.188036349550891
 30
0.0
 11
0.01666666666666661
 21
0.0
 31
0.0
210
0.0
220
0.0
230
1.0
 40
0.5773502691896246
 41
0.7853981633974804
 42
0.7879881848277148
  0
ELLIPSE
  5
25B
330
1F
100
AcDbEntity
  8
VISIBLE
100
AcDbEllipse
 10
2.697486281108401
 20
5.360949039370751
 30
0.0
 11
0.3506444751154754
 21
0.08075058774996879
 31
0.0
210
0.0
220
0.0
230
0.9999999999999998
 40
0.5351112396282028
 41
-0.1226136127850781
 42
-0.1225801175773493
  0
ELLIPSE
  5
25C
330
1F
100
AcDbEntity
  8
VISIBLE
100
AcDbEllipse
 10
2.697486281108401
 20
5.360949039370751
 30
0.0
 11
0.3506444751154754
 21
0.08075058774996879
 31
0.0
210
0.0
220
0.0
230
0.9999999999999998
 40
0.5351112396282028
 41
4.310924214146611
 42
6.160571694394508
  0
ELLIPSE
  5
25D
330
1F
100
AcDbEntity
  8
VISIBLE
100
AcDbEllipse
 10
2.342498876238373
 20
5.141324269484754
 30
0.0
 11
-0.2000000000000002
 21
-8.881784197001252E-16
 31
0.0
210
0.0
220
0.0
230
1.0
 40
0.5773502691896398
 41
-2.877179466004394
 42
-1.830029471519901
  0
ELLIPSE
  5
25E
330
1F
100
AcDbEntity
  8
VISIBLE
100
AcDbEllipse
 10
2.421868179718082
 20
5.326516088058487
 30
0.0
 11
0.01666666666666661
 21
0.0
 31
0.0
210
0.0
220
0.0
230
1.0
 40
0.5773502691896246
 41
0.7879881848276498
 42
3.141592653589793
  0
ELLIPSE
  5
25F
330
1F
100
AcDbEntity
  8
VISIBLE
100
AcDbEllipse
 10
2.421868179718082
 20
5.326516088058487
 30
0.0
 11
0.01666666666666661
 21
0.0
 31
0.0
210
0.0
220
0.0
230
1.0
 40
0.5773502691896246
 41
3.141592653589793
 42
6.283185307179586
  0
ELLIPSE
  5
260
330
1F
100
AcDbEntity
  8
VISIBLE
100
AcDbEllipse
 10
2.421868179718082
 20
5.326516088058487
 30
0.0
 11
0.01666666666666661
 21
0.0
 31
0.0
210
0.0
220
0.0
230
1.0
 40
0.5773502691896246
 41
0.0
 42
0.7879881848276498
  0
ELLIPSE
  5
261
330
1F
100
AcDbEntity
  8
VISIBLE
100
AcDbEllipse
 10
2.795074745626874
 20
5.526729162060143
 30
0.0
 11
0.06666666666666643
 21
0.0
 31
0.0
210
0.0
220
0.0
230
1.0
 40
0.5773502691896379
 41
0.2644131875854172
 42
1.575941529117806
  0
ELLIPSE
  5
262
330
1F
100
AcDbEntity
  8
VISIBLE
100
AcDbEllipse
 10
2.626592698193777
 20
5.401667994422526
 30
0.0
 11
0.1000000000000001
 21
8.881784197001252E-16
 31
0.0
210
0.0
220
0.0
230
1.0
 40
0.5773502691896398
 41
3.141592653589778
 42
6.283185307179586
  0
LINE
  5
263
330
1F
100
AcDbEntity
  8
VISIBLE
100
AcDbLine
 10
2.52659269819377
 20
6.821693459335337
 30
0.0
 11
2.526592698193777
 21
5.401667994422527
 31
0.0
  0
LINE
  5
264
330
1F
100
AcDbEntity
  8
VISIBLE
100
AcDbLine
 10
2.72659269819377
 20
6.921701596712446
 30
0.0
 11
2.726592698193777
 21
5.401667994422528
 31
0.0
  0
LINE
  5
265
330
1F
100
AcDbEntity
  8
VISIBLE
100
AcDbLine
 10
2.616954772580436
 20
6.954112442490076
 30
0.0
 11
2.620022135326615
 21
6.952341499782868
 31
0.0
  0
LINE
  5
266
330
1F
100
AcDbEntity
  8
TANGENT_EDGES
100
AcDbLine
 10
2.528119843452031
 20
7.469300562734899
 30
0.0
 11
2.528119843452031
 21
7.469218913076795
 31
0.0
  0
LINE
  5
267
330
1F
100
AcDbEntity
  8
TANGENT_EDGES
100
AcDbLine
 10
2.129335189088849
 20
7.702750543498484
 30
0.0
 11
2.129335189088849
 21
7.704356320107641
 31
0.0
  0
LINE
  5
268
330
1F
100
AcDbEntity
  8
TANGENT_EDGES
100
AcDbLine
 10
2.130725832425182
 20
7.708370761630534
 30
0.0
 11
2.869605278313045
 21
8.134963008612573
 31
0.0
  0
LINE
  5
269
330
1F
100
AcDbEntity
  8
TANGENT_EDGES
100
AcDbLine
 10
2.129335189088847
 20
7.704356320107639
 30
0.0
 11
2.130725832425181
 21
7.705159208412217
 31
0.0
  0
LINE
  5
26A
330
1F
100
AcDbEntity
  8
TANGENT_EDGES
100
AcDbLine
 10
2.536463703470033
 20
7.464401583249321
 30
0.0
 11
2.536463703470032
 21
7.467613136467637
 31
0.0
  0
LINE
  5
26B
330
1F
100
AcDbEntity
  8
TANGENT_EDGES
100
AcDbLine
 10
2.126553902416179
 20
7.067271254562426
 30
0.0
 11
2.126553902416182
 21
7.701144766889323
 31
0.0
  0
ELLIPSE
  5
26C
330
1F
100
AcDbEntity
  8
TANGENT_EDGES
100
AcDbEllipse
 10
3.181523272906833
 20
7.582833805005091
 30
0.0
 11
-0.00409999999999977
 21
-0.007101408311032564
 31
0.0
210
0.0
220
0.0
230
1.0
 40
0.577350269189585
 41
0.0
 42
6.283185307179586
  0
ELLIPSE
  5
26D
330
1F
100
AcDbEntity
  8
TANGENT_EDGES
100
AcDbEllipse
 10
3.251213308881552
 20
7.761742546014387
 30
0.0
 11
-0.004100000000000215
 21
-0.007101408311031675
 31
0.0
210
0.0
220
0.0
230
0.9999999999999997
 40
0.5773502691896233
 41
0.0
 42
6.283185307179586
  0
ELLIPSE
  5
26E
330
1F
100
AcDbEntity
  8
TANGENT_EDGES
100
AcDbEllipse
 10
3.112432073351239
 20
7.681924596656405
 30
0.0
 11
-0.00409999999999977
 21
-0.007101408311032564
 31
0.0
210
0.0
220
0.0
230
1.0
 40
0.577350269189585
 41
0.0
 42
6.283185307179586
  0
LINE
  5
26F
330
1F
100
AcDbEntity
  8
TANGENT_EDGES
100
AcDbLine
 10
2.534083110640028
 20
7.462564465942237
 30
0.0
 11
2.534083110640027
 21
6.817368867693149
 31
0.0
  0
LINE
  5
270
330
1F
100
AcDbEntity
  8
TANGENT_EDGES
100
AcDbLine
 10
2.542426970658029
 20
7.462564465942237
 30
0.0
 11
3.293892917251019
 21
7.89642353249453
 31
0.0
  0
LINE
  5
271
330
1F
100
AcDbEntity
  8
TANGENT_EDGES
100
AcDbLine
 10
3.293892917251018
 20
7.251227934245441
 30
0.0
 11
2.542426970658028
 21
6.817368867693149
 31
0.0
  0
LINE
  5
272
330
1F
100
AcDbEntity
  8
TANGENT_EDGES
100
AcDbLine
 10
3.289720987242018
 20
7.90364952723574
 30
0.0
 11
2.538255040649029
 21
7.469790460683448
 31
0.0
  0
LINE
  5
273
330
1F
100
AcDbEntity
  8
TANGENT_EDGES
100
AcDbLine
 10
2.542426970658028
 20
6.817368867693149
 30
0.0
 11
2.542426970658029
 21
7.462564465942237
 31
0.0
  0
LINE
  5
274
330
1F
100
AcDbEntity
  8
TANGENT_EDGES
100
AcDbLine
 10
3.294222900415573
 20
7.892776514433054
 30
0.0
 11
3.294222900415572
 21
7.258630836579187
 31
0.0
  0
LINE
  5
275
330
1F
100
AcDbEntity
  8
TANGENT_EDGES
100
AcDbLine
 10
2.600240828564686
 20
5.143071131860645
 30
0.0
 11
2.600240828564686
 21
5.15667940820944
 31
0.0
  0
LINE
  5
276
330
1F
100
AcDbEntity
  8
TANGENT_EDGES
100
AcDbLine
 10
2.535548081502039
 20
5.185109823969407
 30
0.0
 11
2.53554808150204
 21
5.171501547620611
 31
0.0
  0
LINE
  5
277
330
1F
100
AcDbEntity
  8
TANGENT_EDGES
100
AcDbLine
 10
2.344189381644717
 20
5.303746983713898
 30
0.0
 11
2.344189381644717
 21
5.290138707365103
 31
0.0
  0
LINE
  5
278
330
1F
100
AcDbEntity
  8
TANGENT_EDGES
100
AcDbLine
 10
2.393766755262784
 20
5.252936103654701
 30
0.0
 11
2.393766755262784
 21
5.266544380003496
 31
0.0
  0
LINE
  5
279
330
1F
100
AcDbEntity
  8
VISIBLE
100
AcDbLine
 10
8.75084169880235
 20
7.207782449302914
 30
0.0
 11
8.647132704228325
 21
7.147906033368214
 31
0.0
  0
LINE
  5
27A
330
1F
100
AcDbEntity
  8
VISIBLE
100
AcDbLine
 10
8.508068370594966
 20
6.904317886724773
 30
0.0
 11
8.508068370594968
 21
6.907039541994532
 31
0.0
  0
ELLIPSE
  5
27B
330
1F
100
AcDbEntity
  8
VISIBLE
100
AcDbEllipse
 10
8.82263660731883
 20
7.620575904067278
 30
0.0
 11
0.001966666666668004
 21
0.0
 31
0.0
210
0.0
220
0.0
230
1.0
 40
0.5773502691890275
 41
0.0
 42
0.7853981633986704
  0
ELLIPSE
  5
27C
330
1F
100
AcDbEntity
  8
VISIBLE
100
AcDbEllipse
 10
8.82263660731883
 20
7.620575904067278
 30
0.0
 11
0.001966666666668004
 21
0.0
 31
0.0
210
0.0
220
0.0
230
1.0
 40
0.5773502691890275
 41
5.497787143782108
 42
6.283185307179586
  0
LINE
  5
27D
330
1F
100
AcDbEntity
  8
VISIBLE
100
AcDbLine
 10
8.415955927232405
 20
7.386867366053061
 30
0.0
 11
8.416898736273987
 21
7.386323034999109
 31
0.0
  0
LINE
  5
27E
330
1F
100
AcDbEntity
  8
VISIBLE
100
AcDbLine
 10
8.647132704228323
 20
6.987328372452426
 30
0.0
 11
8.75084169880235
 21
7.047204788387127
 31
0.0
  0
LINE
  5
27F
330
1F
100
AcDbEntity
  8
VISIBLE
100
AcDbLine
 10
8.824027250655163
 20
7.619773015762699
 30
0.0
 11
8.42246130961932
 21
7.38792881160827
 31
0.0
  0
LINE
  5
280
330
1F
100
AcDbEntity
  8
VISIBLE
100
AcDbLine
 10
8.647132704228325
 20
7.147906033368214
 30
0.0
 11
8.647132704228325
 21
7.150627688637972
 31
0.0
  0
LINE
  5
281
330
1F
100
AcDbEntity
  8
VISIBLE
100
AcDbLine
 10
7.71518195665305
 20
7.198891868418124
 30
0.0
 11
7.737400269977182
 21
7.211719617596752
 31
0.0
  0
ELLIPSE
  5
282
330
1F
100
AcDbEntity
  8
VISIBLE
100
AcDbEllipse
 10
8.82263660731883
 20
7.620575904067278
 30
0.0
 11
0.00295000000000023
 21
0.005109549882329034
 31
0.0
210
0.0
220
0.0
230
1.0
 40
0.5773502691892646
 41
0.0
 42
0.7853981633977173
  0
ELLIPSE
  5
283
330
1F
100
AcDbEntity
  8
VISIBLE
100
AcDbEllipse
 10
8.82263660731883
 20
7.620575904067278
 30
0.0
 11
0.00295000000000023
 21
0.005109549882329034
 31
0.0
210
0.0
220
0.0
230
1.0
 40
0.5773502691892646
 41
-0.7853981633977111
 42
0.0
  0
LINE
  5
284
330
1F
100
AcDbEntity
  8
VISIBLE
100
AcDbLine
 10
8.611777365168994
 20
7.045843960752246
 30
0.0
 11
8.60942034256504
 21
7.047204788387126
 31
0.0
  0
LINE
  5
285
330
1F
100
AcDbEntity
  8
VISIBLE
100
AcDbLine
 10
8.416898736273986
 20
7.386323034999112
 30
0.0
 11
8.416898736273986
 21
7.385697054287065
 31
0.0
  0
ELLIPSE
  5
286
330
1F
100
AcDbEntity
  8
VISIBLE
100
AcDbEllipse
 10
8.82263660731883
 20
7.620575904067276
 30
0.0
 11
0.0009833333333340022
 21
0.001703183294111454
 31
0.0
210
0.0
220
0.0
230
1.0
 40
0.5773502691892475
 41
0.0
 42
0.7853981633975117
  0
ELLIPSE
  5
287
330
1F
100
AcDbEntity
  8
VISIBLE
100
AcDbEllipse
 10
8.82263660731883
 20
7.620575904067276
 30
0.0
 11
0.0009833333333340022
 21
0.001703183294111454
 31
0.0
210
0.0
220
0.0
230
1.0
 40
0.5773502691892475
 41
-0.7853981633968686
 42
0.0
  0
LINE
  5
288
330
1F
100
AcDbEntity
  8
VISIBLE
100
AcDbLine
 10
8.647132704228325
 20
7.150627688637972
 30
0.0
 11
8.750841698802352
 21
7.210504104572673
 31
0.0
  0
LINE
  5
289
330
1F
100
AcDbEntity
  8
VISIBLE
100
AcDbLine
 10
8.611777365168994
 20
6.964194302659473
 30
0.0
 11
8.60942034256504
 21
6.965555130294353
 31
0.0
  0
LINE
  5
28A
330
1F
100
AcDbEntity
  8
VISIBLE
100
AcDbLine
 10
8.826808537327828
 20
6.984293726826647
 30
0.0
 11
8.426583660514472
 21
6.753223786462071
 31
0.0
  0
LINE
  5
28B
330
1F
100
AcDbEntity
  8
VISIBLE
100
AcDbLine
 10
7.719125764599095
 20
7.841465445760928
 30
0.0
 11
8.08375716143096
 21
8.051985480876796
 31
0.0
  0
LINE
  5
28C
330
1F
100
AcDbEntity
  8
VISIBLE
100
AcDbLine
 10
8.421070666282988
 20
7.390337476522005
 30
0.0
 11
8.82263660731883
 21
7.622181680676436
 31
0.0
  0
LINE
  5
28D
330
1F
100
AcDbEntity
  8
VISIBLE
100
AcDbLine
 10
8.419680022946654
 20
7.38792881160827
 30
0.0
 11
8.416898736273986
 21
7.386323034999112
 31
0.0
  0
LINE
  5
28E
330
1F
100
AcDbEntity
  8
VISIBLE
100
AcDbLine
 10
8.647132704228323
 20
6.984606717182667
 30
0.0
 11
8.647132704228323
 21
6.987328372452426
 31
0.0
  0
LINE
  5
28F
330
1F
100
AcDbEntity
  8
VISIBLE
100
AcDbLine
 10
8.647132704228323
 20
7.06625637527544
 30
0.0
 11
8.647132704228325
 21
7.0689780305452
 31
0.0
  0
LINE
  5
290
330
1F
100
AcDbEntity
  8
VISIBLE
100
AcDbLine
 10
8.508068370594968
 20
7.070338858180079
 30
0.0
 11
8.611777365168996
 21
7.130215274114779
 31
0.0
  0
LINE
  5
291
330
1F
100
AcDbEntity
  8
VISIBLE
100
AcDbLine
 10
8.822636607318831
 20
7.625393233894752
 30
0.0
 11
8.448992538271524
 21
7.409669730049179
 31
0.0
  0
LINE
  5
292
330
1F
100
AcDbEntity
  8
VISIBLE
100
AcDbLine
 10
8.75084169880235
 20
7.126132791210141
 30
0.0
 11
8.748484676198396
 21
7.127493618845021
 31
0.0
  0
LINE
  5
293
330
1F
100
AcDbEntity
  8
VISIBLE
100
AcDbLine
 10
8.508068370594968
 20
6.985967544817546
 30
0.0
 11
8.508068370594968
 21
6.988689200087305
 31
0.0
  0
ELLIPSE
  5
294
330
1F
100
AcDbEntity
  8
VISIBLE
100
AcDbEllipse
 10
8.822636607318827
 20
6.986702391740383
 30
0.0
 11
0.00590000000000046
 21
0.0
 31
0.0
210
0.0
220
0.0
230
1.0
 40
0.5773502691895258
 41
5.497787143782142
 42
6.283185307179586
  0
LINE
  5
295
330
1F
100
AcDbEntity
  8
VISIBLE
100
AcDbLine
 10
8.75084169880235
 20
7.1288544464799
 30
0.0
 11
8.75084169880235
 21
7.126132791210141
 31
0.0
  0
LINE
  5
296
330
1F
100
AcDbEntity
  8
VISIBLE
100
AcDbLine
 10
8.425242596291987
 20
7.386323034999112
 30
0.0
 11
8.82680853732783
 21
7.618167239153541
 31
0.0
  0
LINE
  5
297
330
1F
100
AcDbEntity
  8
VISIBLE
100
AcDbLine
 10
8.611777365168994
 20
6.964194302659473
 30
0.0
 11
8.508068370594966
 21
6.904317886724773
 31
0.0
  0
LINE
  5
298
330
1F
100
AcDbEntity
  8
VISIBLE
100
AcDbLine
 10
8.611777365168996
 20
7.130215274114779
 30
0.0
 11
8.611777365168996
 21
7.127493618845019
 31
0.0
  0
LINE
  5
299
330
1F
100
AcDbEntity
  8
VISIBLE
100
AcDbLine
 10
8.75084169880235
 20
7.044483133117367
 30
0.0
 11
8.647132704228323
 21
6.984606717182667
 31
0.0
  0
LINE
  5
29A
330
1F
100
AcDbEntity
  8
VISIBLE
100
AcDbLine
 10
8.611777365168994
 20
6.966915957929232
 30
0.0
 11
8.611777365168994
 21
6.964194302659473
 31
0.0
  0
LINE
  5
29B
330
1F
100
AcDbEntity
  8
VISIBLE
100
AcDbLine
 10
8.415955927232405
 20
7.386867366053061
 30
0.0
 11
8.415413812033494
 21
7.386554375697038
 31
0.0
  0
LINE
  5
29C
330
1F
100
AcDbEntity
  8
VISIBLE
100
AcDbLine
 10
8.508068370594968
 20
6.988689200087305
 30
0.0
 11
8.611777365168996
 21
7.048565616022006
 31
0.0
  0
ELLIPSE
  5
29D
330
1F
100
AcDbEntity
  8
VISIBLE
100
AcDbEllipse
 10
8.421070666282986
 20
7.388731699912849
 30
0.0
 11
0.00590000000000046
 21
0.0
 31
0.0
210
0.0
220
0.0
230
1.0
 40
0.5773502691895258
 41
3.926990816987421
 42
5.497787143781958
  0
ELLIPSE
  5
29E
330
1F
100
AcDbEntity
  8
VISIBLE
100
AcDbEllipse
 10
8.82263660731883
 20
7.620575904067278
 30
0.0
 11
0.00590000000000046
 21
0.0
 31
0.0
210
0.0
220
0.0
230
1.0
 40
0.5773502691895258
 41
0.0
 42
0.7853981633976286
  0
ELLIPSE
  5
29F
330
1F
100
AcDbEntity
  8
VISIBLE
100
AcDbEllipse
 10
8.82263660731883
 20
7.620575904067278
 30
0.0
 11
0.00590000000000046
 21
0.0
 31
0.0
210
0.0
220
0.0
230
1.0
 40
0.5773502691895258
 41
5.497787143781958
 42
6.283185307179586
  0
ELLIPSE
  5
2A0
330
1F
100
AcDbEntity
  8
VISIBLE
100
AcDbEllipse
 10
8.421070666282983
 20
7.38873169991285
 30
0.0
 11
0.0009833333333322258
 21
0.001703183294105237
 31
0.0
210
0.0
220
0.0
230
1.0
 40
0.5773502691872825
 41
0.7853981634001354
 42
2.356194490195806
  0
LINE
  5
2A1
330
1F
100
AcDbEntity
  8
VISIBLE
100
AcDbLine
 10
8.508068370594968
 20
7.067617202910319
 30
0.0
 11
8.508068370594968
 21
7.070338858180079
 31
0.0
  0
LINE
  5
2A2
330
1F
100
AcDbEntity
  8
VISIBLE
100
AcDbLine
 10
8.611777365168996
 20
7.127493618845019
 30
0.0
 11
8.508068370594968
 21
7.067617202910319
 31
0.0
  0
LINE
  5
2A3
330
1F
100
AcDbEntity
  8
VISIBLE
100
AcDbLine
 10
8.82680853732783
 20
7.622984568981015
 30
0.0
 11
8.824027250655163
 21
7.621378792371857
 31
0.0
  0
LINE
  5
2A4
330
1F
100
AcDbEntity
  8
VISIBLE
100
AcDbLine
 10
8.75084169880235
 20
7.047204788387127
 30
0.0
 11
8.75084169880235
 21
7.044483133117367
 31
0.0
  0
LINE
  5
2A5
330
1F
100
AcDbEntity
  8
VISIBLE
100
AcDbLine
 10
8.750841698802352
 20
7.210504104572673
 30
0.0
 11
8.75084169880235
 21
7.207782449302914
 31
0.0
  0
LINE
  5
2A6
330
1F
100
AcDbEntity
  8
VISIBLE
100
AcDbLine
 10
8.75084169880235
 20
7.126132791210141
 30
0.0
 11
8.647132704228323
 21
7.06625637527544
 31
0.0
  0
ELLIPSE
  5
2A7
330
1F
100
AcDbEntity
  8
VISIBLE
100
AcDbEllipse
 10
8.772785579245177
 20
7.599387817075979
 30
0.0
 11
0.00416666666666643
 21
-0.007216878364870283
 31
0.0
210
0.0
220
0.0
230
1.0
 40
0.577350269189611
 41
0.7853455318184108
 42
0.8991776932866578
  0
LINE
  5
2A8
330
1F
100
AcDbEntity
  8
VISIBLE
100
AcDbLine
 10
8.75084169880235
 20
7.044483133117367
 30
0.0
 11
8.748484676198396
 21
7.045843960752247
 31
0.0
  0
LINE
  5
2A9
330
1F
100
AcDbEntity
  8
VISIBLE
100
AcDbLine
 10
8.508068370594968
 20
6.907039541994532
 30
0.0
 11
8.611777365168994
 21
6.966915957929232
 31
0.0
  0
LINE
  5
2AA
330
1F
100
AcDbEntity
  8
VISIBLE
100
AcDbLine
 10
8.611777365168996
 20
7.045843960752246
 30
0.0
 11
8.508068370594968
 21
6.985967544817546
 31
0.0
  0
LINE
  5
2AB
330
1F
100
AcDbEntity
  8
VISIBLE
100
AcDbLine
 10
8.778678135746905
 20
7.595985389880956
 30
0.0
 11
8.778678026590152
 21
7.593590629041224
 31
0.0
  0
ELLIPSE
  5
2AC
330
1F
100
AcDbEntity
  8
VISIBLE
100
AcDbEllipse
 10
8.421070666282988
 20
7.388731699912856
 30
0.0
 11
-0.001966666666673333
 21
-8.881784197001252E-16
 31
0.0
210
0.0
220
0.0
230
1.0
 40
0.5773502691915277
 41
0.78539816339977
 42
2.356194490188341
  0
ELLIPSE
  5
2AD
330
1F
100
AcDbEntity
  8
VISIBLE
100
AcDbEllipse
 10
8.083757161430958
 20
8.047168151049323
 30
0.0
 11
0.002950000000000231
 21
0.005109549882327258
 31
0.0
210
0.0
220
0.0
230
0.9999999999999998
 40
0.5773502691894902
 41
0.0
 42
0.7853981633976957
  0
LINE
  5
2AE
330
1F
100
AcDbEntity
  8
VISIBLE
100
AcDbLine
 10
8.75084169880235
 20
7.207782449302914
 30
0.0
 11
8.748484676198396
 21
7.209143276937794
 31
0.0
  0
LINE
  5
2AF
330
1F
100
AcDbEntity
  8
VISIBLE
100
AcDbLine
 10
8.647132704228325
 20
7.0689780305452
 30
0.0
 11
8.75084169880235
 21
7.1288544464799
 31
0.0
  0
LINE
  5
2B0
330
1F
100
AcDbEntity
  8
VISIBLE
100
AcDbLine
 10
7.73018614036212
 20
7.184549692258988
 30
0.0
 11
7.725035951584546
 21
7.187523155136097
 31
0.0
  0
ELLIPSE
  5
2B1
330
1F
100
AcDbEntity
  8
VISIBLE
100
AcDbEllipse
 10
8.421070666282988
 20
7.388731699912847
 30
0.0
 11
-0.00295000000000023
 21
-0.005109549882328146
 31
0.0
210
0.0
220
0.0
230
1.0
 40
0.5773502691896757
 41
-1.515125819625461
 42
-0.785398163397268
  0
LINE
  5
2B2
330
1F
100
AcDbEntity
  8
VISIBLE
100
AcDbLine
 10
8.419680022946654
 20
7.387928811608267
 30
0.0
 11
8.416898736273987
 21
7.386323034999109
 31
0.0
  0
LINE
  5
2B3
330
1F
100
AcDbEntity
  8
VISIBLE
100
AcDbLine
 10
7.735939942401276
 20
7.214088050296007
 30
0.0
 11
7.713860997556294
 21
7.201340765546334
 31
0.0
  0
LINE
  5
2B4
330
1F
100
AcDbEntity
  8
VISIBLE
100
AcDbLine
 10
8.611777365168996
 20
7.048565616022006
 30
0.0
 11
8.611777365168996
 21
7.045843960752246
 31
0.0
  0
ELLIPSE
  5
2B5
330
1F
100
AcDbEntity
  8
VISIBLE
100
AcDbEllipse
 10
8.772785579245177
 20
7.585779540727183
 30
0.0
 11
0.006250000000001421
 21
-0.0108253175473072
 31
0.0
210
0.0
220
0.0
230
0.9999999999999999
 40
0.5773502691896574
 41
-2.127008468856966
 42
-1.88122849800543
  0
LINE
  5
2B6
330
1F
100
AcDbEntity
  8
VISIBLE
100
AcDbLine
 10
8.611777365168994
 20
7.12749361884502
 30
0.0
 11
8.60942034256504
 21
7.1288544464799
 31
0.0
  0
ELLIPSE
  5
2B7
330
1F
100
AcDbEntity
  8
VISIBLE
100
AcDbEllipse
 10
8.775566865917844
 20
7.587385317336341
 30
0.0
 11
0.006250000000001421
 21
-0.0108253175473072
 31
0.0
210
0.0
220
0.0
230
0.9999999999999999
 40
0.5773502691896574
 41
-2.127008468856966
 42
-1.881228498005427
  0
LINE
  5
2B8
330
1F
100
AcDbEntity
  8
VISIBLE
100
AcDbLine
 10
8.828536607318828
 20
7.620575904067274
 30
0.0
 11
8.828536607318826
 21
6.986702391740383
 31
0.0
  0
LINE
  5
2B9
330
1F
100
AcDbEntity
  8
VISIBLE
100
AcDbLine
 10
8.825586607318828
 20
7.625685453949602
 30
0.0
 11
8.086707161430963
 21
8.052277700931644
 31
0.0
  0
ELLIPSE
  5
2BA
330
1F
100
AcDbEntity
  8
VISIBLE
100
AcDbEllipse
 10
8.267439932957183
 20
7.310339446924817
 30
0.0
 11
0.06666666666666643
 21
-0.1154700538379254
 31
0.0
210
0.0
220
0.0
230
1.0
 40
0.577350269189623
 41
0.0
 42
0.7862243153949836
  0
ELLIPSE
  5
2BB
330
1F
100
AcDbEntity
  8
VISIBLE
100
AcDbEllipse
 10
8.267439932957183
 20
7.310339446924817
 30
0.0
 11
0.06666666666666643
 21
-0.1154700538379254
 31
0.0
210
0.0
220
0.0
230
1.0
 40
0.577350269189623
 41
0.7862243153949836
 42
3.141592653589793
  0
ELLIPSE
  5
2BC
330
1F
100
AcDbEntity
  8
VISIBLE
100
AcDbEllipse
 10
8.27922504597696
 20
7.317143585099215
 30
0.0
 11
0.06666666666666643
 21
-0.1154700538379263
 31
0.0
210
0.0
220
0.0
230
0.9999999999999998
 40
0.5773502691896164
 41
0.7862243153949935
 42
3.141592653589799
  0
ELLIPSE
  5
2BD
330
1F
100
AcDbEntity
  8
VISIBLE
100
AcDbEllipse
 10
8.27922504597696
 20
7.317143585099215
 30
0.0
 11
0.06666666666666643
 21
-0.1154700538379263
 31
0.0
210
0.0
220
0.0
230
0.9999999999999998
 40
0.5773502691896164
 41
0.0
 42
0.7862243153949935
  0
LINE
  5
2BE
330
1F
100
AcDbEntity
  8
VISIBLE
100
AcDbLine
 10
8.334106599623851
 20
7.19486939308689
 30
0.0
 11
8.345891712643628
 21
7.201673531261288
 31
0.0
  0
LINE
  5
2BF
330
1F
100
AcDbEntity
  8
VISIBLE
100
AcDbLine
 10
8.200773266290518
 20
7.425809500762741
 30
0.0
 11
8.212558379310295
 21
7.432613638937139
 31
0.0
  0
ELLIPSE
  5
2C0
330
1F
100
AcDbEntity
  8
VISIBLE
100
AcDbEllipse
 10
8.263681890203253
 20
7.215890748534943
 30
0.0
 11
-0.003149999999999764
 21
0.00545596004384219
 31
0.0
210
0.0
220
0.0
230
0.9999999999999999
 40
0.5773502691895922
 41
3.141592653589793
 42
4.971983881904392
  0
ELLIPSE
  5
2C1
330
1F
100
AcDbEntity
  8
VISIBLE
100
AcDbEllipse
 10
8.263681890203253
 20
7.215890748534943
 30
0.0
 11
-0.003149999999999764
 21
0.00545596004384219
 31
0.0
210
0.0
220
0.0
230
0.9999999999999999
 40
0.5773502691895922
 41
0.0
 42
3.141592653589793
  0
ELLIPSE
  5
2C2
330
1F
100
AcDbEntity
  8
VISIBLE
100
AcDbEllipse
 10
8.263681890203253
 20
7.215890748534943
 30
0.0
 11
-0.003149999999999764
 21
0.00545596004384219
 31
0.0
210
0.0
220
0.0
230
0.9999999999999999
 40
0.5773502691895922
 41
-1.311201425275194
 42
0.0
  0
ELLIPSE
  5
2C3
330
1F
100
AcDbEntity
  8
VISIBLE
100
AcDbEllipse
 10
8.267439932957183
 20
7.310339446924813
 30
0.0
 11
-0.04475500077188954
 21
0.07751793522969841
 31
0.0
210
0.0
220
0.0
230
0.9999999999999998
 40
0.5773502691896139
 41
0.0395090360774571
 42
3.102083617512342
  0
ELLIPSE
  5
2C4
330
1F
100
AcDbEntity
  8
VISIBLE
100
AcDbEllipse
 10
8.33337192617797
 20
7.314328367484564
 30
0.0
 11
-0.003149999999999764
 21
0.005455960043841301
 31
0.0
210
0.0
220
0.0
230
1.0
 40
0.5773502691896627
 41
3.141592653589671
 42
4.971983881904132
  0
ELLIPSE
  5
2C5
330
1F
100
AcDbEntity
  8
VISIBLE
100
AcDbEllipse
 10
8.33337192617797
 20
7.314328367484564
 30
0.0
 11
-0.003149999999999764
 21
0.005455960043841301
 31
0.0
210
0.0
220
0.0
230
1.0
 40
0.5773502691896627
 41
0.0
 42
3.141592653589671
  0
ELLIPSE
  5
2C6
330
1F
100
AcDbEntity
  8
VISIBLE
100
AcDbEllipse
 10
8.33337192617797
 20
7.314328367484564
 30
0.0
 11
-0.003149999999999764
 21
0.005455960043841301
 31
0.0
210
0.0
220
0.0
230
1.0
 40
0.5773502691896627
 41
-1.311201425275455
 42
0.0
  0
ELLIPSE
  5
2C7
330
1F
100
AcDbEntity
  8
VISIBLE
100
AcDbEllipse
 10
8.267439932957183
 20
7.310339446924813
 30
0.0
 11
-0.06666666666666643
 21
0.1154700538379254
 31
0.0
210
0.0
220
0.0
230
1.0
 40
0.577350269189623
 41
-1.311201425275296
 42
0.0
  0
ELLIPSE
  5
2C8
330
1F
100
AcDbEntity
  8
VISIBLE
100
AcDbEllipse
 10
8.267439932957183
 20
7.310339446924813
 30
0.0
 11
-0.06666666666666643
 21
0.1154700538379254
 31
0.0
210
0.0
220
0.0
230
1.0
 40
0.577350269189623
 41
3.141592653589793
 42
4.97198388190429
  0
ELLIPSE
  5
2C9
330
1F
100
AcDbEntity
  8
VISIBLE
100
AcDbEllipse
 10
8.26390439905125
 20
7.308298205472493
 30
0.0
 11
-0.04475500077188954
 21
0.07751793522969841
 31
0.0
210
0.0
220
0.0
230
0.9999999999999998
 40
0.5773502691896139
 41
-1.311201425275293
 42
0.0
  0
ELLIPSE
  5
2CA
330
1F
100
AcDbEntity
  8
VISIBLE
100
AcDbEllipse
 10
8.26390439905125
 20
7.308298205472493
 30
0.0
 11
-0.04475500077188954
 21
0.07751793522969841
 31
0.0
210
0.0
220
0.0
230
0.9999999999999998
 40
0.5773502691896139
 41
0.0
 42
3.141592653589802
  0
ELLIPSE
  5
2CB
330
1F
100
AcDbEntity
  8
VISIBLE
100
AcDbEllipse
 10
8.26390439905125
 20
7.308298205472493
 30
0.0
 11
-0.04475500077188954
 21
0.07751793522969841
 31
0.0
210
0.0
220
0.0
230
0.9999999999999998
 40
0.5773502691896139
 41
3.141592653589802
 42
4.971983881904293
  0
ELLIPSE
  5
2CC
330
1F
100
AcDbEntity
  8
VISIBLE
100
AcDbEllipse
 10
8.26390439905125
 20
7.308298205472493
 30
0.0
 11
-0.06666666666666643
 21
0.1154700538379263
 31
0.0
210
0.0
220
0.0
230
0.9999999999999998
 40
0.5773502691896164
 41
3.141592653589779
 42
4.971983881904294
  0
ELLIPSE
  5
2CD
330
1F
100
AcDbEntity
  8
VISIBLE
100
AcDbEllipse
 10
8.26390439905125
 20
7.308298205472493
 30
0.0
 11
-0.06666666666666643
 21
0.1154700538379263
 31
0.0
210
0.0
220
0.0
230
0.9999999999999998
 40
0.5773502691896164
 41
0.0
 42
3.141592653589779
  0
ELLIPSE
  5
2CE
330
1F
100
AcDbEntity
  8
VISIBLE
100
AcDbEllipse
 10
8.26390439905125
 20
7.308298205472493
 30
0.0
 11
-0.06666666666666643
 21
0.1154700538379263
 31
0.0
210
0.0
220
0.0
230
0.9999999999999998
 40
0.5773502691896164
 41
-1.311201425275292
 42
0.0
  0
ELLIPSE
  5
2CF
330
1F
100
AcDbEntity
  8
VISIBLE
100
AcDbEllipse
 10
8.19459069064766
 20
7.39476118551037
 30
0.0
 11
-0.003149999999999764
 21
0.00545596004384219
 31
0.0
210
0.0
220
0.0
230
0.9999999999999999
 40
0.5773502691895217
 41
3.141592653589914
 42
4.971983881904362
  0
ELLIPSE
  5
2D0
330
1F
100
AcDbEntity
  8
VISIBLE
100
AcDbEllipse
 10
8.19459069064766
 20
7.39476118551037
 30
0.0
 11
-0.003149999999999764
 21
0.00545596004384219
 31
0.0
210
0.0
220
0.0
230
0.9999999999999999
 40
0.5773502691895217
 41
0.0
 42
3.141592653589914
  0
ELLIPSE
  5
2D1
330
1F
100
AcDbEntity
  8
VISIBLE
100
AcDbEllipse
 10
8.19459069064766
 20
7.39476118551037
 30
0.0
 11
-0.003149999999999764
 21
0.00545596004384219
 31
0.0
210
0.0
220
0.0
230
0.9999999999999999
 40
0.5773502691895217
 41
-1.311201425275225
 42
0.0
  0
LINE
  5
2D2
330
1F
100
AcDbEntity
  8
VISIBLE
100
AcDbLine
 10
8.200773266290518
 20
7.42580950076274
 30
0.0
 11
8.197237732384586
 21
7.423768259310421
 31
0.0
  0
LINE
  5
2D3
330
1F
100
AcDbEntity
  8
VISIBLE
100
AcDbLine
 10
8.334106599623851
 20
7.194869393086889
 30
0.0
 11
8.330571065717919
 21
7.192828151634569
 31
0.0
  0
LINE
  5
2D4
330
1F
100
AcDbEntity
  8
VISIBLE
100
AcDbLine
 10
7.739914703965985
 20
7.206558365682719
 30
0.0
 11
7.739914703965985
 21
7.185273698970811
 31
0.0
  0
ELLIPSE
  5
2D5
330
1F
100
AcDbEntity
  8
VISIBLE
100
AcDbEllipse
 10
8.433044341111072
 20
7.415676087083459
 30
0.0
 11
0.01666666666666572
 21
-8.881784197001252E-16
 31
0.0
210
0.0
220
0.0
230
1.0
 40
0.5773502691896555
 41
0.0
 42
0.7853981633974882
  0
ELLIPSE
  5
2D6
330
1F
100
AcDbEntity
  8
VISIBLE
100
AcDbEllipse
 10
8.433044341111072
 20
7.415676087083459
 30
0.0
 11
0.01666666666666572
 21
-8.881784197001252E-16
 31
0.0
210
0.0
220
0.0
230
1.0
 40
0.5773502691896555
 41
-0.7853981633974301
 42
0.0
  0
ELLIPSE
  5
2D7
330
1F
100
AcDbEntity
  8
VISIBLE
100
AcDbEllipse
 10
8.410864758407861
 20
6.739249494613894
 30
0.0
 11
-0.0009833333333411076
 21
-0.00170318329411856
 31
0.0
210
0.0
220
0.0
230
1.0
 40
0.5773502691868496
 41
0.0
 42
0.7853981634011153
  0
ELLIPSE
  5
2D8
330
1F
100
AcDbEntity
  8
VISIBLE
100
AcDbEllipse
 10
8.410864758407861
 20
6.739249494613894
 30
0.0
 11
-0.0009833333333411076
 21
-0.00170318329411856
 31
0.0
210
0.0
220
0.0
230
1.0
 40
0.5773502691868496
 41
-0.7853981633954623
 42
0.0
  0
ELLIPSE
  5
2D9
330
1F
100
AcDbEntity
  8
VISIBLE
100
AcDbEllipse
 10
7.659398811814877
 20
7.173108561166184
 30
0.0
 11
-0.005899999999999572
 21
0.0
 31
0.0
210
0.0
220
0.0
230
1.0
 40
0.5773502691896127
 41
0.0
 42
0.7853981633974753
  0
LINE
  5
2DA
330
1F
100
AcDbEntity
  8
VISIBLE
100
AcDbLine
 10
7.709744814635358
 20
7.699666544955278
 30
0.0
 11
7.712526101308026
 21
7.701272321564436
 31
0.0
  0
ELLIPSE
  5
2DB
330
1F
100
AcDbEntity
  8
VISIBLE
100
AcDbEllipse
 10
7.727611045973339
 20
7.206231105799151
 30
0.0
 11
0.01249999999999929
 21
-0.02165063509461085
 31
0.0
210
0.0
220
0.0
230
1.0
 40
0.5773502691895932
 41
-1.807743858175537
 42
-0.1114822457514044
  0
LINE
  5
2DC
330
1F
100
AcDbEntity
  8
VISIBLE
100
AcDbLine
 10
7.709744814635358
 20
7.720951211667186
 30
0.0
 11
7.712526101308026
 21
7.722556988276344
 31
0.0
  0
LINE
  5
2DD
330
1F
100
AcDbEntity
  8
VISIBLE
100
AcDbLine
 10
7.709744814635359
 20
7.202692292697269
 30
0.0
 11
7.709744814635359
 21
7.223976959409177
 31
0.0
  0
ELLIPSE
  5
2DE
330
1F
100
AcDbEntity
  8
VISIBLE
100
AcDbEllipse
 10
8.410864758407854
 20
7.384445092862973
 30
0.0
 11
-0.00295000000000023
 21
-0.005109549882328146
 31
0.0
210
0.0
220
0.0
230
1.0
 40
0.5773502691896757
 41
-2.356194490192345
 42
-0.7853981633974518
  0
LINE
  5
2DF
330
1F
100
AcDbEntity
  8
VISIBLE
100
AcDbLine
 10
7.712526101308026
 20
7.722556988276344
 30
0.0
 11
7.712526101308026
 21
7.701272321564436
 31
0.0
  0
LINE
  5
2E0
330
1F
100
AcDbEntity
  8
VISIBLE
100
AcDbLine
 10
7.659398811814876
 20
7.823121489242746
 30
0.0
 11
7.655226881805876
 21
7.82071282432901
 31
0.0
  0
LINE
  5
2E1
330
1F
100
AcDbEntity
  8
VISIBLE
100
AcDbLine
 10
8.406692828398853
 20
7.382036427949236
 30
0.0
 11
8.406692828398853
 21
6.736840829700149
 31
0.0
  0
LINE
  5
2E2
330
1F
100
AcDbEntity
  8
VISIBLE
100
AcDbLine
 10
7.739914703965984
 20
7.703532617940728
 30
0.0
 11
7.739914703965984
 21
7.68224795122882
 31
0.0
  0
LINE
  5
2E3
330
1F
100
AcDbEntity
  8
VISIBLE
100
AcDbLine
 10
7.709744814635358
 20
7.699666544955278
 30
0.0
 11
7.709744814635358
 21
7.720951211667186
 31
0.0
  0
LINE
  5
2E4
330
1F
100
AcDbEntity
  8
VISIBLE
100
AcDbLine
 10
7.659398811814876
 20
7.823121489242746
 30
0.0
 11
7.705148620557646
 21
7.849535153635758
 31
0.0
  0
LINE
  5
2E5
330
1F
100
AcDbEntity
  8
VISIBLE
100
AcDbLine
 10
7.709744814635359
 20
7.223976959409177
 30
0.0
 11
7.712526101308026
 21
7.225582736018335
 31
0.0
  0
ELLIPSE
  5
2E6
330
1F
100
AcDbEntity
  8
VISIBLE
100
AcDbEllipse
 10
7.659398811814877
 20
7.173108561166184
 30
0.0
 11
-0.002949999999999342
 21
-0.005109549882328146
 31
0.0
210
0.0
220
0.0
230
1.0
 40
0.5773502691896439
 41
-0.7853981633975242
 42
0.0
  0
ELLIPSE
  5
2E7
330
1F
100
AcDbEntity
  8
VISIBLE
100
AcDbEllipse
 10
7.659398811814876
 20
7.818304159415272
 30
0.0
 11
-0.005899999999999572
 21
0.0
 31
0.0
210
0.0
220
0.0
230
1.0
 40
0.5773502691896127
 41
0.0
 42
0.7853981633974753
  0
ELLIPSE
  5
2E8
330
1F
100
AcDbEntity
  8
VISIBLE
100
AcDbEllipse
 10
7.659398811814876
 20
7.818304159415272
 30
0.0
 11
-0.005899999999999572
 21
0.0
 31
0.0
210
0.0
220
0.0
230
1.0
 40
0.5773502691896127
 41
-0.7853981633976599
 42
0.0
  0
ELLIPSE
  5
2E9
330
1F
100
AcDbEntity
  8
VISIBLE
100
AcDbEllipse
 10
7.724829759300672
 20
7.204625329189994
 30
0.0
 11
0.01250000000000018
 21
-0.02165063509461085
 31
0.0
210
0.0
220
0.0
230
0.9999999999999998
 40
0.5773502691896314
 41
0.0
 42
0.2369475313806396
  0
ELLIPSE
  5
2EA
330
1F
100
AcDbEntity
  8
VISIBLE
100
AcDbEllipse
 10
7.724829759300672
 20
7.204625329189994
 30
0.0
 11
0.01250000000000018
 21
-0.02165063509461085
 31
0.0
210
0.0
220
0.0
230
0.9999999999999998
 40
0.5773502691896314
 41
-1.807743858175571
 42
0.0
  0
LINE
  5
2EB
330
1F
100
AcDbEntity
  8
VISIBLE
100
AcDbLine
 10
8.409474115071522
 20
6.738446606309306
 30
0.0
 11
8.40947411507152
 21
7.383642204558394
 31
0.0
  0
LINE
  5
2EC
330
1F
100
AcDbEntity
  8
VISIBLE
100
AcDbLine
 10
7.705148620557646
 20
7.849535153635758
 30
0.0
 11
8.444829454130847
 21
7.422480225257856
 31
0.0
  0
LINE
  5
2ED
330
1F
100
AcDbEntity
  8
VISIBLE
100
AcDbLine
 10
7.712526101308026
 20
7.225582736018335
 30
0.0
 11
7.712526101308026
 21
7.204298069306427
 31
0.0
  0
ELLIPSE
  5
2EE
330
1F
100
AcDbEntity
  8
VISIBLE
100
AcDbEllipse
 10
8.433044341111072
 20
6.764057382397739
 30
0.0
 11
0.0166666666666675
 21
0.0
 31
0.0
210
0.0
220
0.0
230
1.0
 40
0.5773502691895939
 41
0.0
 42
0.2362040748361457
  0
ELLIPSE
  5
2EF
330
1F
100
AcDbEntity
  8
VISIBLE
100
AcDbEllipse
 10
8.433044341111072
 20
6.764057382397739
 30
0.0
 11
0.0166666666666675
 21
0.0
 31
0.0
210
0.0
220
0.0
230
1.0
 40
0.5773502691895939
 41
5.497787143782117
 42
6.283185307179586
  0
LINE
  5
2F0
330
1F
100
AcDbEntity
  8
VISIBLE
100
AcDbLine
 10
8.444829454130849
 20
6.757253244223342
 30
0.0
 11
8.42658366051447
 21
6.746719030367347
 31
0.0
  0
LINE
  5
2F1
330
1F
100
AcDbEntity
  8
VISIBLE
100
AcDbLine
 10
8.414598139547177
 20
6.739799186610503
 30
0.0
 11
8.410864758407854
 21
6.737643718004727
 31
0.0
  0
LINE
  5
2F2
330
1F
100
AcDbEntity
  8
VISIBLE
100
AcDbLine
 10
8.410864758407854
 20
7.386050869472131
 30
0.0
 11
8.444829454130847
 21
7.405660395690745
 31
0.0
  0
LINE
  5
2F3
330
1F
100
AcDbEntity
  8
VISIBLE
100
AcDbLine
 10
8.410864758407854
 20
6.734432164786411
 30
0.0
 11
8.419284230121988
 21
6.739293149047
 31
0.0
  0
LINE
  5
2F4
330
1F
100
AcDbEntity
  8
VISIBLE
100
AcDbLine
 10
8.426534057706144
 20
6.743478838954291
 30
0.0
 11
8.444829454130849
 21
6.754041691005026
 31
0.0
  0
ELLIPSE
  5
2F5
330
1F
100
AcDbEntity
  8
VISIBLE
100
AcDbEllipse
 10
7.724829759300671
 20
7.701599581448003
 30
0.0
 11
0.01250000000000018
 21
-0.02165063509461174
 31
0.0
210
0.0
220
0.0
230
1.0
 40
0.5773502691896136
 41
0.0
 42
0.2369475313806392
  0
ELLIPSE
  5
2F6
330
1F
100
AcDbEntity
  8
VISIBLE
100
AcDbEllipse
 10
7.724829759300671
 20
7.701599581448003
 30
0.0
 11
0.01250000000000018
 21
-0.02165063509461174
 31
0.0
210
0.0
220
0.0
230
1.0
 40
0.5773502691896136
 41
-1.807743858175516
 42
0.0
  0
ELLIPSE
  5
2F7
330
1F
100
AcDbEntity
  8
VISIBLE
100
AcDbEllipse
 10
8.410864758407854
 20
6.739249494613885
 30
0.0
 11
-0.00295000000000023
 21
-0.005109549882328146
 31
0.0
210
0.0
220
0.0
230
1.0
 40
0.5773502691896757
 41
0.0
 42
0.7853981633974484
  0
ELLIPSE
  5
2F8
330
1F
100
AcDbEntity
  8
VISIBLE
100
AcDbEllipse
 10
8.410864758407854
 20
6.739249494613885
 30
0.0
 11
-0.00295000000000023
 21
-0.005109549882328146
 31
0.0
210
0.0
220
0.0
230
1.0
 40
0.5773502691896757
 41
-0.7853981633974519
 42
0.0
  0
ELLIPSE
  5
2F9
330
1F
100
AcDbEntity
  8
VISIBLE
100
AcDbEllipse
 10
8.433044341111072
 20
6.760845829179424
 30
0.0
 11
0.0166666666666675
 21
0.0
 31
0.0
210
0.0
220
0.0
230
1.0
 40
0.5773502691895939
 41
5.497787143782117
 42
6.283185307179586
  0
ELLIPSE
  5
2FA
330
1F
100
AcDbEntity
  8
VISIBLE
100
AcDbEllipse
 10
7.659398811814876
 20
7.818304159415273
 30
0.0
 11
0.00295000000000023
 21
0.005109549882328146
 31
0.0
210
0.0
220
0.0
230
1.0
 40
0.5773502691896757
 41
0.7853981633974482
 42
2.356194490192632
  0
LINE
  5
2FB
330
1F
100
AcDbEntity
  8
VISIBLE
100
AcDbLine
 10
8.444829454130847
 20
7.408871948909061
 30
0.0
 11
8.410864758407854
 21
7.389262422690447
 31
0.0
  0
ELLIPSE
  5
2FC
330
1F
100
AcDbEntity
  8
VISIBLE
100
AcDbEllipse
 10
8.410864758407856
 20
7.384445092862972
 30
0.0
 11
0.0009833333333340022
 21
0.001703183294110566
 31
0.0
210
0.0
220
0.0
230
1.0
 40
0.5773502691907073
 41
0.7853981633965081
 42
2.356194490191598
  0
ELLIPSE
  5
2FD
330
1F
100
AcDbEntity
  8
VISIBLE
100
AcDbEllipse
 10
7.724829759300671
 20
7.701599581448003
 30
0.0
 11
0.01250000000000018
 21
-0.02165063509461174
 31
0.0
210
0.0
220
0.0
230
1.0
 40
0.5773502691896136
 41
-3.141592653589762
 42
-2.904645122209117
  0
ELLIPSE
  5
2FE
330
1F
100
AcDbEntity
  8
VISIBLE
100
AcDbEllipse
 10
7.724829759300671
 20
7.701599581448003
 30
0.0
 11
0.01250000000000018
 21
-0.02165063509461174
 31
0.0
210
0.0
220
0.0
230
1.0
 40
0.5773502691896136
 41
-4.949336511765346
 42
-3.141592653589762
  0
ELLIPSE
  5
2FF
330
1F
100
AcDbEntity
  8
VISIBLE
100
AcDbEllipse
 10
7.727611045973339
 20
7.206231105799151
 30
0.0
 11
0.01249999999999929
 21
-0.02165063509461085
 31
0.0
210
0.0
220
0.0
230
1.0
 40
0.5773502691895932
 41
-3.030110407838308
 42
-2.904645122209125
  0
ELLIPSE
  5
300
330
1F
100
AcDbEntity
  8
VISIBLE
100
AcDbEllipse
 10
8.433044341111072
 20
7.412464533865143
 30
0.0
 11
0.01666666666666572
 21
0.0
 31
0.0
210
0.0
220
0.0
230
1.0
 40
0.5773502691896555
 41
5.497787143782094
 42
6.283185307179586
  0
LINE
  5
301
330
1F
100
AcDbEntity
  8
VISIBLE
100
AcDbLine
 10
7.709744814635359
 20
7.202692292697269
 30
0.0
 11
7.712526101308026
 21
7.204298069306427
 31
0.0
  0
ELLIPSE
  5
302
330
1F
100
AcDbEntity
  8
VISIBLE
100
AcDbEllipse
 10
7.724829759300672
 20
7.204625329189994
 30
0.0
 11
0.01250000000000018
 21
-0.02165063509461085
 31
0.0
210
0.0
220
0.0
230
0.9999999999999998
 40
0.5773502691896314
 41
-3.141592653589824
 42
-2.904645122209191
  0
ELLIPSE
  5
303
330
1F
100
AcDbEntity
  8
VISIBLE
100
AcDbEllipse
 10
7.724829759300672
 20
7.204625329189994
 30
0.0
 11
0.01250000000000018
 21
-0.02165063509461085
 31
0.0
210
0.0
220
0.0
230
0.9999999999999998
 40
0.5773502691896314
 41
-4.949336511765328
 42
-3.141592653589824
  0
ELLIPSE
  5
304
330
1F
100
AcDbEntity
  8
VISIBLE
100
AcDbEllipse
 10
7.727611045973338
 20
7.703205358057161
 30
0.0
 11
0.01249999999999929
 21
-0.02165063509461174
 31
0.0
210
0.0
220
0.0
230
1.0
 40
0.5773502691895754
 41
-1.807743858175482
 42
-0.1114822457514046
  0
ELLIPSE
  5
305
330
1F
100
AcDbEntity
  8
VISIBLE
100
AcDbEllipse
 10
7.727611045973338
 20
7.703205358057161
 30
0.0
 11
0.01249999999999929
 21
-0.02165063509461174
 31
0.0
210
0.0
220
0.0
230
1.0
 40
0.5773502691895754
 41
-3.030110407838274
 42
-2.904645122209051
  0
LINE
  5
306
330
1F
100
AcDbEntity
  8
VISIBLE
100
AcDbLine
 10
7.653498811814878
 20
7.173108561166185
 30
0.0
 11
7.653498811814877
 21
7.818304159415272
 31
0.0
  0
LINE
  5
307
330
1F
100
AcDbEntity
  8
VISIBLE
100
AcDbLine
 10
8.44971100777774
 20
7.412464533865143
 30
0.0
 11
8.44971100777774
 21
7.415676087083458
 31
0.0
  0
LINE
  5
308
330
1F
100
AcDbEntity
  8
VISIBLE
100
AcDbLine
 10
8.449711007777742
 20
6.764057382397739
 30
0.0
 11
8.449711007777742
 21
6.760845829179424
 31
0.0
  0
LINE
  5
309
330
1F
100
AcDbEntity
  8
VISIBLE
100
AcDbLine
 10
7.656448811814878
 20
7.167999011283856
 30
0.0
 11
8.407914758407856
 21
6.734139944731557
 31
0.0
  0
ELLIPSE
  5
30A
330
1F
100
AcDbEntity
  8
VISIBLE
100
AcDbEllipse
 10
8.418383660514479
 20
7.378144460913481
 30
0.0
 11
0.00416666666666643
 21
0.0
 31
0.0
210
0.0
220
0.0
230
1.0
 40
0.5773502691896555
 41
0.0
 42
0.7853981633974814
  0
ELLIPSE
  5
30B
330
1F
100
AcDbEntity
  8
VISIBLE
100
AcDbEllipse
 10
8.418383660514479
 20
7.378144460913481
 30
0.0
 11
0.00416666666666643
 21
0.0
 31
0.0
210
0.0
220
0.0
230
1.0
 40
0.5773502691896555
 41
3.141592653589793
 42
6.283185307179586
  0
ELLIPSE
  5
30C
330
1F
100
AcDbEntity
  8
VISIBLE
100
AcDbEllipse
 10
8.418383660514479
 20
7.378144460913481
 30
0.0
 11
0.00416666666666643
 21
0.0
 31
0.0
210
0.0
220
0.0
230
1.0
 40
0.5773502691896555
 41
0.7853981633974814
 42
3.141592653589793
  0
LINE
  5
30D
330
1F
100
AcDbEntity
  8
VISIBLE
100
AcDbLine
 10
8.41357533440241
 20
7.387615821252244
 30
0.0
 11
8.42418193612021
 21
7.381492096895285
 31
0.0
  0
LINE
  5
30E
330
1F
100
AcDbEntity
  8
VISIBLE
100
AcDbLine
 10
8.409474115071527
 20
7.379859103733431
 30
0.0
 11
8.4104338521943
 21
7.379304999247246
 31
0.0
  0
ELLIPSE
  5
30F
330
1F
100
AcDbEntity
  8
VISIBLE
100
AcDbEllipse
 10
8.418383660514479
 20
7.378144460913481
 30
0.0
 11
0.008200000000000429
 21
0.0
 31
0.0
210
0.0
220
0.0
230
1.0
 40
0.5773502691896453
 41
0.0
 42
0.7853981633973782
  0
ELLIPSE
  5
310
330
1F
100
AcDbEntity
  8
VISIBLE
100
AcDbEllipse
 10
8.418383660514479
 20
7.378144460913481
 30
0.0
 11
0.008200000000000429
 21
0.0
 31
0.0
210
0.0
220
0.0
230
1.0
 40
0.5773502691896453
 41
3.926990816987324
 42
6.283185307179586
  0
ELLIPSE
  5
311
330
1F
100
AcDbEntity
  8
VISIBLE
100
AcDbEllipse
 10
8.418383660514479
 20
7.378144460913481
 30
0.0
 11
0.008200000000000429
 21
0.0
 31
0.0
210
0.0
220
0.0
230
1.0
 40
0.5773502691896453
 41
1.81845581371489
 42
2.89393316666982
  0
LINE
  5
312
330
1F
100
AcDbEntity
  8
VISIBLE
100
AcDbLine
 10
8.409474115071525
 20
6.742447439555852
 30
0.0
 11
8.412585384908747
 21
6.740651147077811
 31
0.0
  0
LINE
  5
313
330
1F
100
AcDbEntity
  8
VISIBLE
100
AcDbLine
 10
8.41258538490875
 20
7.374796824931678
 30
0.0
 11
8.409474115071527
 21
7.37659311740972
 31
0.0
  0
LINE
  5
314
330
1F
100
AcDbEntity
  8
VISIBLE
100
AcDbLine
 10
8.416373549156267
 20
7.382734284887143
 30
0.0
 11
8.410751524972794
 21
7.385980162062862
 31
0.0
  0
ELLIPSE
  5
315
330
1F
100
AcDbEntity
  8
VISIBLE
100
AcDbEllipse
 10
8.418383660514476
 20
6.743998783059615
 30
0.0
 11
0.008200000000000429
 21
0.0
 31
0.0
210
0.0
220
0.0
230
1.0
 40
0.5773502691896453
 41
3.926990816987324
 42
6.283185307179586
  0
LINE
  5
316
330
1F
100
AcDbEntity
  8
VISIBLE
100
AcDbLine
 10
8.426583660514476
 20
7.378144460913481
 30
0.0
 11
8.426583660514472
 21
6.743998783059615
 31
0.0
  0
ELLIPSE
  5
317
330
1F
100
AcDbEntity
  8
VISIBLE
100
AcDbEllipse
 10
8.25541911767701
 20
7.126491633452589
 30
0.0
 11
-0.01769546583931714
 21
0.03064944589729723
 31
0.0
210
0.0
220
0.0
230
1.0
 40
0.5773502691896084
 41
0.0
 42
0.7853981633974391
  0
ELLIPSE
  5
318
330
1F
100
AcDbEntity
  8
VISIBLE
100
AcDbEllipse
 10
8.25541911767701
 20
7.126491633452589
 30
0.0
 11
-0.01769546583931714
 21
0.03064944589729723
 31
0.0
210
0.0
220
0.0
230
1.0
 40
0.5773502691896084
 41
3.141592653589815
 42
6.283185307179586
  0
ELLIPSE
  5
319
330
1F
100
AcDbEntity
  8
VISIBLE
100
AcDbEllipse
 10
8.25541911767701
 20
7.126491633452589
 30
0.0
 11
-0.01769546583931714
 21
0.03064944589729723
 31
0.0
210
0.0
220
0.0
230
1.0
 40
0.5773502691896084
 41
0.7853981633974391
 42
3.141592653589815
  0
ELLIPSE
  5
31A
330
1F
100
AcDbEntity
  8
VISIBLE
100
AcDbEllipse
 10
8.279225045976958
 20
7.140235992564873
 30
0.0
 11
0.01944999999999908
 21
-0.03368838820721543
 31
0.0
210
0.0
220
0.0
230
1.0
 40
0.5773502691895868
 41
0.0
 42
3.141592653589882
  0
ELLIPSE
  5
31B
330
1F
100
AcDbEntity
  8
VISIBLE
100
AcDbEllipse
 10
8.256361926718592
 20
7.127035964506541
 30
0.0
 11
-0.01769546583931714
 21
0.03064944589729723
 31
0.0
210
0.0
220
0.0
230
1.0
 40
0.5773502691896084
 41
0.7853981633974391
 42
3.1149496535845
  0
ELLIPSE
  5
31C
330
1F
100
AcDbEntity
  8
VISIBLE
100
AcDbEllipse
 10
8.256361926718592
 20
7.127035964506541
 30
0.0
 11
-0.01769546583931714
 21
0.03064944589729723
 31
0.0
210
0.0
220
0.0
230
1.0
 40
0.5773502691896084
 41
0.0266430000053001
 42
0.7853981633974391
  0
ELLIPSE
  5
31D
330
1F
100
AcDbEntity
  8
VISIBLE
100
AcDbEllipse
 10
8.25541911767701
 20
7.126491633452589
 30
0.0
 11
0.01944999999999908
 21
-0.03368838820721454
 31
0.0
210
0.0
220
0.0
230
0.9999999999999998
 40
0.5773502691896489
 41
-0.7853981633974071
 42
0.0
  0
ELLIPSE
  5
31E
330
1F
100
AcDbEntity
  8
VISIBLE
100
AcDbEllipse
 10
8.25541911767701
 20
7.126491633452589
 30
0.0
 11
0.01944999999999908
 21
-0.03368838820721454
 31
0.0
210
0.0
220
0.0
230
0.9999999999999998
 40
0.5773502691896489
 41
0.0
 42
3.141592653589773
  0
ELLIPSE
  5
31F
330
1F
100
AcDbEntity
  8
VISIBLE
100
AcDbEllipse
 10
8.25541911767701
 20
7.126491633452589
 30
0.0
 11
0.01944999999999908
 21
-0.03368838820721454
 31
0.0
210
0.0
220
0.0
230
0.9999999999999998
 40
0.5773502691896489
 41
-3.141592653589814
 42
-0.785398163397407
  0
LINE
  5
320
330
1F
100
AcDbEntity
  8
VISIBLE
100
AcDbLine
 10
8.25977504597696
 20
7.173924380772087
 30
0.0
 11
8.235969117677012
 21
7.160180021659803
 31
0.0
  0
LINE
  5
321
330
1F
100
AcDbEntity
  8
VISIBLE
100
AcDbLine
 10
8.298675045976958
 20
7.106547604357657
 30
0.0
 11
8.274869117677012
 21
7.092803245245374
 31
0.0
  0
LINE
  5
322
330
1F
100
AcDbEntity
  8
VISIBLE
100
AcDbLine
 10
8.561619924156828
 20
7.470150017307692
 30
0.0
 11
8.561619924156828
 21
7.468272075171554
 31
0.0
  0
LINE
  5
323
330
1F
100
AcDbEntity
  8
VISIBLE
100
AcDbLine
 10
8.564872615350293
 20
7.470150017307692
 30
0.0
 11
8.561619924156828
 21
7.470150017307692
 31
0.0
  0
LINE
  5
324
330
1F
100
AcDbEntity
  8
VISIBLE
100
AcDbLine
 10
8.561619924156828
 20
7.470150017307692
 30
0.0
 11
8.560464983080895
 21
7.47081682284878
 31
0.0
  0
LINE
  5
325
330
1F
100
AcDbEntity
  8
VISIBLE
100
AcDbLine
 10
8.515210149084957
 20
7.444688932259092
 30
0.0
 11
8.517991435757622
 21
7.443083155649936
 31
0.0
  0
LINE
  5
326
330
1F
100
AcDbEntity
  8
VISIBLE
100
AcDbLine
 10
8.702805578133743
 20
7.549785650500839
 30
0.0
 11
8.702805578133743
 21
7.552997203719154
 31
0.0
  0
LINE
  5
327
330
1F
100
AcDbEntity
  8
VISIBLE
100
AcDbLine
 10
8.658964957700176
 20
7.52447425649208
 30
0.0
 11
8.658964957700176
 21
7.527685809710394
 31
0.0
  0
LINE
  5
328
330
1F
100
AcDbEntity
  8
VISIBLE
100
AcDbLine
 10
8.634451922619043
 20
7.510321649089332
 30
0.0
 11
8.634451922619043
 21
7.513533202307646
 31
0.0
  0
LINE
  5
329
330
1F
100
AcDbEntity
  8
VISIBLE
100
AcDbLine
 10
8.627828689101932
 20
7.506497723435323
 30
0.0
 11
8.625047402429267
 21
7.50810350004448
 31
0.0
  0
LINE
  5
32A
330
1F
100
AcDbEntity
  8
VISIBLE
100
AcDbLine
 10
8.67452130688628
 20
7.533455718882284
 30
0.0
 11
8.67452130688628
 21
7.536667272100599
 31
0.0
  0
ELLIPSE
  5
32B
330
1F
100
AcDbEntity
  8
VISIBLE
100
AcDbEllipse
 10
7.904655933843433
 20
5.479684183187004
 30
0.0
 11
-0.1999999999999993
 21
-1.776356839400250E-15
 31
0.0
210
0.0
220
0.0
230
1.0
 40
0.5773502691896246
 41
1.835209514380303
 42
2.882359508864784
  0
ELLIPSE
  5
32C
330
1F
100
AcDbEntity
  8
VISIBLE
100
AcDbEllipse
 10
8.261486967847045
 20
5.274732109426369
 30
0.0
 11
0.3511942389848883
 21
-0.08045610323999508
 31
0.0
210
0.0
220
0.0
230
1.0
 40
0.5337163838749465
 41
-4.507324623912545
 42
-4.306898265063992
  0
ELLIPSE
  5
32D
330
1F
100
AcDbEntity
  8
VISIBLE
100
AcDbEllipse
 10
8.261486967847045
 20
5.274732109426369
 30
0.0
 11
0.3511942389848883
 21
-0.08045610323999508
 31
0.0
210
0.0
220
0.0
230
1.0
 40
0.5337163838749465
 41
0.1266060666599721
 42
1.189556051483263
  0
ELLIPSE
  5
32E
330
1F
100
AcDbEntity
  8
VISIBLE
100
AcDbEllipse
 10
8.618318001850659
 20
5.069780035665735
 30
0.0
 11
0.1999999999999993
 21
1.776356839400250E-15
 31
0.0
210
0.0
220
0.0
230
1.0
 40
0.5773502691896246
 41
1.835209514380303
 42
2.882359508864791
  0
ELLIPSE
  5
32F
330
1F
100
AcDbEntity
  8
VISIBLE
100
AcDbEllipse
 10
8.618318001850659
 20
5.05617175931694
 30
0.0
 11
0.1999999999999993
 21
1.776356839400250E-15
 31
0.0
210
0.0
220
0.0
230
1.0
 40
0.5773502691896202
 41
1.835209514380301
 42
2.882359508864789
  0
ELLIPSE
  5
330
330
1F
100
AcDbEntity
  8
VISIBLE
100
AcDbEllipse
 10
8.537410305848885
 20
5.227515630863707
 30
0.0
 11
0.0166666666666675
 21
0.0
 31
0.0
210
0.0
220
0.0
230
1.0
 40
0.5773502691895406
 41
0.7853981633975909
 42
2.356194490192278
  0
ELLIPSE
  5
331
330
1F
100
AcDbEntity
  8
VISIBLE
100
AcDbEllipse
 10
7.974347372464023
 20
5.317466559337114
 30
0.0
 11
-0.06666666666666643
 21
0.0
 31
0.0
210
0.0
220
0.0
230
1.0
 40
0.5773502691896113
 41
0.0
 42
0.0051452023229061
  0
ELLIPSE
  5
332
330
1F
100
AcDbEntity
  8
VISIBLE
100
AcDbEllipse
 10
7.974347372464023
 20
5.331074835685909
 30
0.0
 11
-0.06666666666666643
 21
0.0
 31
0.0
210
0.0
220
0.0
230
1.0
 40
0.5773502691896246
 41
0.0
 42
0.005145202322906
  0
ELLIPSE
  5
333
330
1F
100
AcDbEntity
  8
VISIBLE
100
AcDbEllipse
 10
7.974347372464023
 20
5.331074835685909
 30
0.0
 11
-0.06666666666666643
 21
0.0
 31
0.0
210
0.0
220
0.0
230
1.0
 40
0.5773502691896246
 41
-1.306383139209484
 42
0.0
  0
ELLIPSE
  5
334
330
1F
100
AcDbEntity
  8
VISIBLE
100
AcDbEllipse
 10
8.321126588974431
 20
5.115603924395137
 30
0.0
 11
0.01666666666666572
 21
0.0
 31
0.0
210
0.0
220
0.0
230
1.0
 40
0.5773502691896555
 41
5.500377165212325
 42
6.283185307179586
  0
ELLIPSE
  5
335
330
1F
100
AcDbEntity
  8
VISIBLE
100
AcDbEllipse
 10
8.321126588974431
 20
5.115603924395137
 30
0.0
 11
0.01666666666666572
 21
0.0
 31
0.0
210
0.0
220
0.0
230
1.0
 40
0.5773502691896555
 41
0.0
 42
3.141592653589793
  0
ELLIPSE
  5
336
330
1F
100
AcDbEntity
  8
VISIBLE
100
AcDbEllipse
 10
8.321126588974431
 20
5.115603924395137
 30
0.0
 11
0.01666666666666572
 21
0.0
 31
0.0
210
0.0
220
0.0
230
1.0
 40
0.5773502691896555
 41
3.141592653589793
 42
5.500377165212325
  0
ELLIPSE
  5
337
330
1F
100
AcDbEntity
  8
VISIBLE
100
AcDbEllipse
 10
8.261486967847047
 20
5.261123833077574
 30
0.0
 11
0.3511942389848866
 21
-0.08045610323999508
 31
0.0
210
0.0
220
0.0
230
0.9999999999999998
 40
0.533716383874949
 41
-3.014986586929818
 42
-1.165305611474197
  0
ELLIPSE
  5
338
330
1F
100
AcDbEntity
  8
VISIBLE
100
AcDbEllipse
 10
7.985563629845206
 20
5.308340311640236
 30
0.0
 11
0.01666666666666572
 21
8.881784197001252E-16
 31
0.0
210
0.0
220
0.0
230
1.0
 40
0.5773502691897088
 41
5.500377165212412
 42
6.283185307179586
  0
ELLIPSE
  5
339
330
1F
100
AcDbEntity
  8
VISIBLE
100
AcDbEllipse
 10
7.985563629845206
 20
5.308340311640236
 30
0.0
 11
0.01666666666666572
 21
8.881784197001252E-16
 31
0.0
210
0.0
220
0.0
230
1.0
 40
0.5773502691897088
 41
0.0
 42
3.141592653589701
  0
ELLIPSE
  5
33A
330
1F
100
AcDbEntity
  8
VISIBLE
100
AcDbEllipse
 10
7.985563629845206
 20
5.308340311640236
 30
0.0
 11
0.01666666666666572
 21
8.881784197001252E-16
 31
0.0
210
0.0
220
0.0
230
1.0
 40
0.5773502691897088
 41
3.141592653589701
 42
5.500377165212412
  0
ELLIPSE
  5
33B
330
1F
100
AcDbEntity
  8
VISIBLE
100
AcDbEllipse
 10
8.54862656323007
 20
5.204781106818034
 30
0.0
 11
0.06666666666666643
 21
0.0
 31
0.0
210
0.0
220
0.0
230
1.0
 40
0.5773502691896246
 41
4.976802167970095
 42
6.283185307179586
  0
ELLIPSE
  5
33C
330
1F
100
AcDbEntity
  8
VISIBLE
100
AcDbEllipse
 10
8.360561511839594
 20
5.109246067339767
 30
0.0
 11
0.06666666666666643
 21
8.881784197001252E-16
 31
0.0
210
0.0
220
0.0
230
1.0
 40
0.5773502691896113
 41
4.712423820922184
 42
6.023952162454553
  0
ELLIPSE
  5
33D
330
1F
100
AcDbEntity
  8
VISIBLE
100
AcDbEllipse
 10
8.321126588974431
 20
5.101995648046342
 30
0.0
 11
0.01666666666666572
 21
0.0
 31
0.0
210
0.0
220
0.0
230
1.0
 40
0.5773502691896555
 41
0.7853981633974914
 42
2.356194490192377
  0
ELLIPSE
  5
33E
330
1F
100
AcDbEntity
  8
VISIBLE
100
AcDbEllipse
 10
8.162412423854498
 20
5.440218151512972
 30
0.0
 11
-0.06666666666666821
 21
-8.881784197001252E-16
 31
0.0
210
0.0
220
0.0
230
1.0
 40
0.5773502691896093
 41
-1.570761486257402
 42
-0.2592331447250114
  0
ELLIPSE
  5
33F
330
1F
100
AcDbEntity
  8
VISIBLE
100
AcDbEllipse
 10
8.360561511839594
 20
5.095637790990972
 30
0.0
 11
0.06666666666666821
 21
0.0
 31
0.0
210
0.0
220
0.0
230
1.0
 40
0.577350269189596
 41
4.712423820922192
 42
6.023952162454568
  0
ELLIPSE
  5
340
330
1F
100
AcDbEntity
  8
VISIBLE
100
AcDbEllipse
 10
8.537410305848885
 20
5.241123907212502
 30
0.0
 11
0.01666666666666572
 21
0.0
 31
0.0
210
0.0
220
0.0
230
1.0
 40
0.5773502691896555
 41
5.500377165212465
 42
6.283185307179586
  0
ELLIPSE
  5
341
330
1F
100
AcDbEntity
  8
VISIBLE
100
AcDbEllipse
 10
8.537410305848885
 20
5.241123907212502
 30
0.0
 11
0.01666666666666572
 21
0.0
 31
0.0
210
0.0
220
0.0
230
1.0
 40
0.5773502691896555
 41
0.0
 42
3.141592653589793
  0
ELLIPSE
  5
342
330
1F
100
AcDbEntity
  8
VISIBLE
100
AcDbEllipse
 10
8.537410305848885
 20
5.241123907212502
 30
0.0
 11
0.01666666666666572
 21
0.0
 31
0.0
210
0.0
220
0.0
230
1.0
 40
0.5773502691896555
 41
3.141592653589793
 42
5.500377165212465
  0
ELLIPSE
  5
343
330
1F
100
AcDbEntity
  8
VISIBLE
100
AcDbEllipse
 10
8.20184734671966
 20
5.420252018108807
 30
0.0
 11
0.0166666666666675
 21
0.0
 31
0.0
210
0.0
220
0.0
230
1.0
 40
0.5773502691895939
 41
0.7853981633974041
 42
2.356194490192389
  0
ELLIPSE
  5
344
330
1F
100
AcDbEntity
  8
VISIBLE
100
AcDbEllipse
 10
7.985563629845206
 20
5.294732035291441
 30
0.0
 11
0.0166666666666675
 21
0.0
 31
0.0
210
0.0
220
0.0
230
1.0
 40
0.5773502691895939
 41
0.785398163397507
 42
2.356194490192351
  0
ELLIPSE
  5
345
330
1F
100
AcDbEntity
  8
VISIBLE
100
AcDbEllipse
 10
8.261486967847045
 20
5.274732109426369
 30
0.0
 11
0.3511942389848883
 21
-0.08045610323999508
 31
0.0
210
0.0
220
0.0
230
1.0
 40
0.5337163838749465
 41
-3.014986586929822
 42
-1.165305611474194
  0
ELLIPSE
  5
346
330
1F
100
AcDbEntity
  8
VISIBLE
100
AcDbEllipse
 10
8.20184734671966
 20
5.433860294457602
 30
0.0
 11
0.0166666666666675
 21
0.0
 31
0.0
210
0.0
220
0.0
230
1.0
 40
0.5773502691895939
 41
5.500377165212346
 42
6.283185307179586
  0
ELLIPSE
  5
347
330
1F
100
AcDbEntity
  8
VISIBLE
100
AcDbEllipse
 10
8.20184734671966
 20
5.433860294457602
 30
0.0
 11
0.0166666666666675
 21
0.0
 31
0.0
210
0.0
220
0.0
230
1.0
 40
0.5773502691895939
 41
0.0
 42
3.141592653589793
  0
ELLIPSE
  5
348
330
1F
100
AcDbEntity
  8
VISIBLE
100
AcDbEllipse
 10
8.20184734671966
 20
5.433860294457602
 30
0.0
 11
0.0166666666666675
 21
0.0
 31
0.0
210
0.0
220
0.0
230
1.0
 40
0.5773502691895939
 41
3.141592653589793
 42
5.500377165212346
  0
ELLIPSE
  5
349
330
1F
100
AcDbEntity
  8
VISIBLE
100
AcDbEllipse
 10
8.548626563230068
 20
5.218389383166829
 30
0.0
 11
0.06666666666666821
 21
8.881784197001252E-16
 31
0.0
210
0.0
220
0.0
230
1.0
 40
0.5773502691896093
 41
0.0
 42
0.0051452023229062
  0
ELLIPSE
  5
34A
330
1F
100
AcDbEntity
  8
VISIBLE
100
AcDbEllipse
 10
8.548626563230068
 20
5.218389383166829
 30
0.0
 11
0.06666666666666821
 21
8.881784197001252E-16
 31
0.0
210
0.0
220
0.0
230
1.0
 40
0.5773502691896093
 41
4.976802167970105
 42
6.283185307179586
  0
LINE
  5
34B
330
1F
100
AcDbEntity
  8
VISIBLE
100
AcDbLine
 10
8.615293229896736
 20
5.21838938316683
 30
0.0
 11
8.615293229896736
 21
5.204781106818034
 31
0.0
  0
LINE
  5
34C
330
1F
100
AcDbEntity
  8
VISIBLE
100
AcDbLine
 10
7.907680705797357
 20
5.331074835685909
 30
0.0
 11
7.907680705797357
 21
5.317466559337114
 31
0.0
  0
ELLIPSE
  5
34D
330
1F
100
AcDbEntity
  8
VISIBLE
100
AcDbEllipse
 10
8.332014266827848
 20
5.315662538605944
 30
0.0
 11
0.09999999999999964
 21
8.881784197001252E-16
 31
0.0
210
0.0
220
0.0
230
1.0
 40
0.5773502691896246
 41
5.49419774801508
 42
6.283185307179586
  0
ELLIPSE
  5
34E
330
1F
100
AcDbEntity
  8
VISIBLE
100
AcDbEllipse
 10
8.332014266827848
 20
5.315662538605944
 30
0.0
 11
0.09999999999999964
 21
8.881784197001252E-16
 31
0.0
210
0.0
220
0.0
230
1.0
 40
0.5773502691896246
 41
3.141592653589793
 42
5.49419774801508
  0
LINE
  5
34F
330
1F
100
AcDbEntity
  8
VISIBLE
100
AcDbLine
 10
8.232014266827834
 20
6.835696140895871
 30
0.0
 11
8.232014266827848
 21
5.315662538605944
 31
0.0
  0
LINE
  5
350
330
1F
100
AcDbEntity
  8
VISIBLE
100
AcDbLine
 10
8.432014266827835
 20
6.746642839165914
 30
0.0
 11
8.432014266827847
 21
5.315662538605945
 31
0.0
  0
LINE
  5
351
330
1F
100
AcDbEntity
  8
TANGENT_EDGES
100
AcDbLine
 10
8.824027250655163
 20
7.621378792371857
 30
0.0
 11
8.824027250655163
 21
7.619773015762699
 31
0.0
  0
LINE
  5
352
330
1F
100
AcDbEntity
  8
TANGENT_EDGES
100
AcDbLine
 10
8.414117449601315
 20
7.38792881160827
 30
0.0
 11
8.415955927232403
 21
7.386867366053062
 31
0.0
  0
LINE
  5
353
330
1F
100
AcDbEntity
  8
TANGENT_EDGES
100
AcDbLine
 10
8.82680853732783
 20
7.618167239153541
 30
0.0
 11
8.826808537327828
 21
6.984293726826646
 31
0.0
  0
LINE
  5
354
330
1F
100
AcDbEntity
  8
TANGENT_EDGES
100
AcDbLine
 10
8.083757161430958
 20
8.051985480876796
 30
0.0
 11
8.82263660731883
 21
7.625393233894752
 31
0.0
  0
LINE
  5
355
330
1F
100
AcDbEntity
  8
TANGENT_EDGES
100
AcDbLine
 10
8.82263660731883
 20
7.622181680676436
 30
0.0
 11
8.824027250655162
 21
7.621378792371858
 31
0.0
  0
LINE
  5
356
330
1F
100
AcDbEntity
  8
TANGENT_EDGES
100
AcDbLine
 10
8.425242596291987
 20
7.380739006474203
 30
0.0
 11
8.425242596291987
 21
7.386323034999112
 31
0.0
  0
ELLIPSE
  5
357
330
1F
100
AcDbEntity
  8
TANGENT_EDGES
100
AcDbEllipse
 10
8.263681890203253
 20
7.215890748534943
 30
0.0
 11
0.004099999999999326
 21
-0.007101408311032564
 31
0.0
210
0.0
220
0.0
230
1.0
 40
0.5773502691894994
 41
0.0
 42
6.283185307179586
  0
ELLIPSE
  5
358
330
1F
100
AcDbEntity
  8
TANGENT_EDGES
100
AcDbEllipse
 10
8.33337192617797
 20
7.314328367484564
 30
0.0
 11
0.004100000000001103
 21
-0.007101408311032564
 31
0.0
210
0.0
220
0.0
230
1.0
 40
0.5773502691897328
 41
0.0
 42
6.283185307179586
  0
ELLIPSE
  5
359
330
1F
100
AcDbEntity
  8
TANGENT_EDGES
100
AcDbEllipse
 10
8.19459069064766
 20
7.394761185510371
 30
0.0
 11
0.004099999999999326
 21
-0.007101408311032564
 31
0.0
210
0.0
220
0.0
230
1.0
 40
0.5773502691894994
 41
0.0
 42
6.283185307179586
  0
LINE
  5
35A
330
1F
100
AcDbEntity
  8
TANGENT_EDGES
100
AcDbLine
 10
8.444829454130847
 20
7.408871948909061
 30
0.0
 11
8.444829454130847
 21
7.405660395690745
 31
0.0
  0
LINE
  5
35B
330
1F
100
AcDbEntity
  8
TANGENT_EDGES
100
AcDbLine
 10
7.655226881805876
 20
7.815895494501536
 30
0.0
 11
8.406692828398853
 21
7.382036427949236
 31
0.0
  0
LINE
  5
35C
330
1F
100
AcDbEntity
  8
TANGENT_EDGES
100
AcDbLine
 10
8.406692828398853
 20
6.736840829700149
 30
0.0
 11
7.655226881805877
 21
7.170699896252447
 31
0.0
  0
LINE
  5
35D
330
1F
100
AcDbEntity
  8
TANGENT_EDGES
100
AcDbLine
 10
8.410864758407854
 20
7.389262422690447
 30
0.0
 11
7.659398811814876
 21
7.823121489242746
 31
0.0
  0
LINE
  5
35E
330
1F
100
AcDbEntity
  8
TANGENT_EDGES
100
AcDbLine
 10
8.410864758407854
 20
6.737643718004727
 30
0.0
 11
8.409474115071522
 21
6.738446606309306
 31
0.0
  0
LINE
  5
35F
330
1F
100
AcDbEntity
  8
TANGENT_EDGES
100
AcDbLine
 10
7.655226881805877
 20
7.170699896252447
 30
0.0
 11
7.655226881805876
 21
7.815895494501536
 31
0.0
  0
LINE
  5
360
330
1F
100
AcDbEntity
  8
TANGENT_EDGES
100
AcDbLine
 10
8.444829454130849
 20
6.757253244223342
 30
0.0
 11
8.444829454130849
 21
6.754041691005026
 31
0.0
  0
LINE
  5
361
330
1F
100
AcDbEntity
  8
TANGENT_EDGES
100
AcDbLine
 10
8.41258538490875
 20
7.374796824931678
 30
0.0
 11
8.412585384908747
 21
6.740651147077811
 31
0.0
  0
LINE
  5
362
330
1F
100
AcDbEntity
  8
TANGENT_EDGES
100
AcDbLine
 10
8.42500063434236
 20
5.085771283072464
 30
0.0
 11
8.42500063434236
 21
5.099379559421259
 31
0.0
  0
LINE
  5
363
330
1F
100
AcDbEntity
  8
TANGENT_EDGES
100
AcDbLine
 10
8.360563834542093
 20
5.070756049417153
 30
0.0
 11
8.360563834542093
 21
5.057147773068357
 31
0.0
  0
LINE
  5
364
330
1F
100
AcDbEntity
  8
TANGENT_EDGES
100
AcDbLine
 10
7.907681588232307
 20
5.317268521281153
 30
0.0
 11
7.907681588232307
 21
5.330876797629948
 31
0.0
  0
LINE
  5
365
330
1F
100
AcDbEntity
  8
TANGENT_EDGES
100
AcDbLine
 10
8.566049422885216
 20
5.181237046291556
 30
0.0
 11
8.566049422885216
 21
5.167628769942761
 31
0.0
  0
LINE
  5
366
330
1F
100
AcDbEntity
  8
VISIBLE
100
AcDbLine
 10
2.457358124344047
 20
4.27698622420888
 30
0.0
 11
2.353649129770018
 21
4.217109808274181
 31
0.0
  0
ELLIPSE
  5
367
330
1F
100
AcDbEntity
  8
VISIBLE
100
AcDbEllipse
 10
2.142789887620185
 20
3.90485429917472
 30
0.0
 11
-0.005900000000000016
 21
0.0
 31
0.0
210
0.0
220
0.0
230
1.0
 40
0.5773502691896445
 41
0.0
 42
0.785398163397434
  0
ELLIPSE
  5
368
330
1F
100
AcDbEntity
  8
VISIBLE
100
AcDbEllipse
 10
2.142789887620185
 20
3.90485429917472
 30
0.0
 11
-0.005900000000000016
 21
0.0
 31
0.0
210
0.0
220
0.0
230
1.0
 40
0.5773502691896445
 41
-0.7853981633974867
 42
0.0
  0
LINE
  5
369
330
1F
100
AcDbEntity
  8
VISIBLE
100
AcDbLine
 10
2.353649129770018
 20
4.138181805451167
 30
0.0
 11
2.457358124344047
 21
4.198058221385866
 31
0.0
  0
LINE
  5
36A
330
1F
100
AcDbEntity
  8
VISIBLE
100
AcDbLine
 10
2.353649129770017
 20
4.138181805451167
 30
0.0
 11
2.356006152373972
 21
4.136820977816288
 31
0.0
  0
LINE
  5
36B
330
1F
100
AcDbEntity
  8
VISIBLE
100
AcDbLine
 10
2.353649129770018
 20
4.217109808274181
 30
0.0
 11
2.353649129770018
 21
4.219831463543939
 31
0.0
  0
LINE
  5
36C
330
1F
100
AcDbEntity
  8
VISIBLE
100
AcDbLine
 10
2.505959930437591
 20
4.1129248445478
 30
0.0
 11
2.142789887620185
 21
3.903248522565563
 31
0.0
  0
LINE
  5
36D
330
1F
100
AcDbEntity
  8
VISIBLE
100
AcDbLine
 10
2.353649129770017
 20
4.21983146354394
 30
0.0
 11
2.356006152373972
 21
4.21847063590906
 31
0.0
  0
LINE
  5
36E
330
1F
100
AcDbEntity
  8
VISIBLE
100
AcDbLine
 10
2.21458479613666
 20
4.139542633086047
 30
0.0
 11
2.216941818740615
 21
4.138181805451167
 31
0.0
  0
LINE
  5
36F
330
1F
100
AcDbEntity
  8
VISIBLE
100
AcDbLine
 10
2.142789887620185
 20
3.900036969347247
 30
0.0
 11
2.508741217110258
 21
4.111319067938642
 31
0.0
  0
LINE
  5
370
330
1F
100
AcDbEntity
  8
VISIBLE
100
AcDbLine
 10
2.19572857685447
 20
3.933812689045525
 30
0.0
 11
2.195728615296855
 21
3.934656066270761
 31
0.0
  0
LINE
  5
371
330
1F
100
AcDbEntity
  8
VISIBLE
100
AcDbLine
 10
2.21458479613666
 20
4.22119229117882
 30
0.0
 11
2.31829379071069
 21
4.281068707113519
 31
0.0
  0
LINE
  5
372
330
1F
100
AcDbEntity
  8
VISIBLE
100
AcDbLine
 10
2.353649129770018
 20
4.298759466366953
 30
0.0
 11
2.353649129770018
 21
4.301481121636713
 31
0.0
  0
LINE
  5
373
330
1F
100
AcDbEntity
  8
VISIBLE
100
AcDbLine
 10
2.31829379071069
 20
4.281068707113519
 30
0.0
 11
2.31829379071069
 21
4.278347051843761
 31
0.0
  0
LINE
  5
374
330
1F
100
AcDbEntity
  8
VISIBLE
100
AcDbLine
 10
2.138617957611184
 20
3.902445634260983
 30
0.0
 11
2.141399244283851
 21
3.904051410870141
 31
0.0
  0
LINE
  5
375
330
1F
100
AcDbEntity
  8
VISIBLE
100
AcDbLine
 10
2.21458479613666
 20
4.136820977816288
 30
0.0
 11
2.21458479613666
 21
4.139542633086047
 31
0.0
  0
ELLIPSE
  5
376
330
1F
100
AcDbEntity
  8
VISIBLE
100
AcDbEllipse
 10
2.62593238097892
 20
4.010917205037229
 30
0.0
 11
-0.01041666666666652
 21
8.881784197001252E-16
 31
0.0
210
0.0
220
0.0
230
1.0
 40
0.5773502691896308
 41
1.286976636502291
 42
1.995106685176983
  0
ELLIPSE
  5
377
330
1F
100
AcDbEntity
  8
VISIBLE
100
AcDbEllipse
 10
3.126587552285033
 20
3.691680650170834
 30
0.0
 11
-0.02583333333333337
 21
0.0
 31
0.0
210
0.0
220
0.0
230
1.0
 40
0.5773502691896457
 41
-3.141592653589793
 42
-0.7853981633974252
  0
ELLIPSE
  5
378
330
1F
100
AcDbEntity
  8
VISIBLE
100
AcDbEllipse
 10
3.126587552285033
 20
3.691680650170834
 30
0.0
 11
-0.02583333333333337
 21
0.0
 31
0.0
210
0.0
220
0.0
230
1.0
 40
0.5773502691896457
 41
0.0
 42
3.141592653589793
  0
ELLIPSE
  5
379
330
1F
100
AcDbEntity
  8
VISIBLE
100
AcDbEllipse
 10
3.126587552285033
 20
3.691680650170834
 30
0.0
 11
-0.02583333333333337
 21
0.0
 31
0.0
210
0.0
220
0.0
230
1.0
 40
0.5773502691896457
 41
-0.7853981633974252
 42
0.0
  0
ELLIPSE
  5
37A
330
1F
100
AcDbEntity
  8
VISIBLE
100
AcDbEllipse
 10
3.073766675730402
 20
3.752359954410112
 30
0.0
 11
-0.01041666666666741
 21
0.0
 31
0.0
210
0.0
220
0.0
230
1.0
 40
0.5773502691895815
 41
1.286976636501377
 42
1.99510668517793
  0
LINE
  5
37B
330
1F
100
AcDbEntity
  8
VISIBLE
100
AcDbLine
 10
2.457358124344047
 20
4.279707879478639
 30
0.0
 11
2.457358124344047
 21
4.27698622420888
 31
0.0
  0
LINE
  5
37C
330
1F
100
AcDbEntity
  8
VISIBLE
100
AcDbLine
 10
2.21458479613666
 20
4.221192291178821
 30
0.0
 11
2.216941818740615
 21
4.219831463543941
 31
0.0
  0
LINE
  5
37D
330
1F
100
AcDbEntity
  8
VISIBLE
100
AcDbLine
 10
2.353649129770018
 20
4.135460150181408
 30
0.0
 11
2.353649129770018
 21
4.138181805451167
 31
0.0
  0
ELLIPSE
  5
37E
330
1F
100
AcDbEntity
  8
VISIBLE
100
AcDbEllipse
 10
2.192617345467797
 20
3.926055993726143
 30
0.0
 11
0.006250000000000089
 21
-0.01082531754730587
 31
0.0
210
0.0
220
0.0
230
1.0
 40
0.5773502691896136
 41
-2.259391767607795
 42
-1.996487490607558
  0
ELLIPSE
  5
37F
330
1F
100
AcDbEntity
  8
VISIBLE
100
AcDbEllipse
 10
2.142789887620185
 20
3.90485429917472
 30
0.0
 11
-0.0009833333333335583
 21
-0.001703183294109678
 31
0.0
210
0.0
220
0.0
230
1.0
 40
0.5773502691896817
 41
0.0
 42
0.7853981633974311
  0
ELLIPSE
  5
380
330
1F
100
AcDbEntity
  8
VISIBLE
100
AcDbEllipse
 10
2.142789887620185
 20
3.90485429917472
 30
0.0
 11
-0.0009833333333335583
 21
-0.001703183294109678
 31
0.0
210
0.0
220
0.0
230
1.0
 40
0.5773502691896817
 41
-0.7853981633983669
 42
0.0
  0
LINE
  5
381
330
1F
100
AcDbEntity
  8
VISIBLE
100
AcDbLine
 10
2.198509901969523
 20
3.936261842879919
 30
0.0
 11
2.198509863527137
 21
3.935418465654683
 31
0.0
  0
ELLIPSE
  5
382
330
1F
100
AcDbEntity
  8
VISIBLE
100
AcDbEllipse
 10
2.790900393029737
 20
3.589074246500917
 30
0.0
 11
-0.01041666666666652
 21
0.0
 31
0.0
210
0.0
220
0.0
230
1.0
 40
0.5773502691896308
 41
1.29062983594335
 42
1.99510668517807
  0
LINE
  5
383
330
1F
100
AcDbEntity
  8
VISIBLE
100
AcDbLine
 10
2.318293790710689
 20
4.115047735658214
 30
0.0
 11
2.21458479613666
 21
4.055171319723515
 31
0.0
  0
ELLIPSE
  5
384
330
1F
100
AcDbEntity
  8
VISIBLE
100
AcDbEllipse
 10
2.18983605879513
 20
3.938058493465781
 30
0.0
 11
0.004166666666667319
 21
-0.007216878364871617
 31
0.0
210
0.0
220
0.0
230
1.0
 40
0.5773502691896192
 41
0.7853455318186787
 42
1.091636682498088
  0
LINE
  5
385
330
1F
100
AcDbEntity
  8
VISIBLE
100
AcDbLine
 10
2.457358124344047
 20
4.358635882301654
 30
0.0
 11
2.353649129770018
 21
4.298759466366953
 31
0.0
  0
LINE
  5
386
330
1F
100
AcDbEntity
  8
VISIBLE
100
AcDbLine
 10
2.353649129770017
 20
4.301481121636713
 30
0.0
 11
2.356006152373972
 21
4.300120294001833
 31
0.0
  0
ELLIPSE
  5
387
330
1F
100
AcDbEntity
  8
VISIBLE
100
AcDbEllipse
 10
2.88166933350805
 20
3.478262052192673
 30
0.0
 11
-0.00295000000000023
 21
-0.005109549882328146
 31
0.0
210
0.0
220
0.0
230
1.0
 40
0.5773502691895729
 41
0.0
 42
0.7853981633975375
  0
LINE
  5
388
330
1F
100
AcDbEntity
  8
VISIBLE
100
AcDbLine
 10
2.318293790710689
 20
4.199419049020746
 30
0.0
 11
2.318293790710689
 21
4.196697393750988
 31
0.0
  0
LINE
  5
389
330
1F
100
AcDbEntity
  8
VISIBLE
100
AcDbLine
 10
2.21458479613666
 20
4.218470635909061
 30
0.0
 11
2.21458479613666
 21
4.22119229117882
 31
0.0
  0
LINE
  5
38A
330
1F
100
AcDbEntity
  8
VISIBLE
100
AcDbLine
 10
2.457358124344047
 20
4.198058221385866
 30
0.0
 11
2.457358124344047
 21
4.195336566116107
 31
0.0
  0
ELLIPSE
  5
38B
330
1F
100
AcDbEntity
  8
VISIBLE
100
AcDbEllipse
 10
2.544355828656033
 20
4.136698503329146
 30
0.0
 11
-0.005900000000000016
 21
0.0
 31
0.0
210
0.0
220
0.0
230
1.0
 40
0.5773502691895692
 41
-1.626466833964722
 42
-0.7853981633974597
  0
LINE
  5
38C
330
1F
100
AcDbEntity
  8
VISIBLE
100
AcDbLine
 10
2.457358124344047
 20
4.195336566116107
 30
0.0
 11
2.353649129770018
 21
4.135460150181408
 31
0.0
  0
LINE
  5
38D
330
1F
100
AcDbEntity
  8
VISIBLE
100
AcDbLine
 10
2.318293790710689
 20
4.117769390927974
 30
0.0
 11
2.318293790710689
 21
4.115047735658214
 31
0.0
  0
LINE
  5
38E
330
1F
100
AcDbEntity
  8
VISIBLE
100
AcDbLine
 10
2.21458479613666
 20
4.139542633086047
 30
0.0
 11
2.318293790710689
 21
4.199419049020746
 31
0.0
  0
LINE
  5
38F
330
1F
100
AcDbEntity
  8
VISIBLE
100
AcDbLine
 10
2.21458479613666
 20
4.057892974993274
 30
0.0
 11
2.216941818740615
 21
4.056532147358395
 31
0.0
  0
ELLIPSE
  5
390
330
1F
100
AcDbEntity
  8
VISIBLE
100
AcDbEllipse
 10
3.126587552285033
 20
3.69489220338915
 30
0.0
 11
-0.02583333333333337
 21
0.0
 31
0.0
210
0.0
220
0.0
230
1.0
 40
0.5773502691896286
 41
0.1078717934108654
 42
3.033720860178955
  0
ELLIPSE
  5
391
330
1F
100
AcDbEntity
  8
VISIBLE
100
AcDbEllipse
 10
2.142789887620185
 20
3.90485429917472
 30
0.0
 11
0.001966666666667116
 21
-4.440892098500626E-16
 31
0.0
210
0.0
220
0.0
230
1.0
 40
0.57735026918974
 41
-3.141592653589793
 42
-2.356194490192831
  0
ELLIPSE
  5
392
330
1F
100
AcDbEntity
  8
VISIBLE
100
AcDbEllipse
 10
2.142789887620185
 20
3.90485429917472
 30
0.0
 11
0.001966666666667116
 21
-4.440892098500626E-16
 31
0.0
210
0.0
220
0.0
230
1.0
 40
0.57735026918974
 41
-3.926990816986947
 42
-3.141592653589793
  0
LINE
  5
393
330
1F
100
AcDbEntity
  8
VISIBLE
100
AcDbLine
 10
3.248112931675879
 20
3.685011032410211
 30
0.0
 11
2.88166933350805
 21
3.4734447223652
 31
0.0
  0
LINE
  5
394
330
1F
100
AcDbEntity
  8
VISIBLE
100
AcDbLine
 10
2.457358124344047
 20
4.361357537571412
 30
0.0
 11
2.457358124344047
 21
4.358635882301654
 31
0.0
  0
LINE
  5
395
330
1F
100
AcDbEntity
  8
VISIBLE
100
AcDbLine
 10
2.353649129770018
 20
4.21983146354394
 30
0.0
 11
2.457358124344047
 21
4.279707879478639
 31
0.0
  0
LINE
  5
396
330
1F
100
AcDbEntity
  8
VISIBLE
100
AcDbLine
 10
2.21458479613666
 20
4.055171319723515
 30
0.0
 11
2.21458479613666
 21
4.057892974993274
 31
0.0
  0
LINE
  5
397
330
1F
100
AcDbEntity
  8
VISIBLE
100
AcDbLine
 10
2.31829379071069
 20
4.278347051843761
 30
0.0
 11
2.21458479613666
 21
4.218470635909061
 31
0.0
  0
LINE
  5
398
330
1F
100
AcDbEntity
  8
VISIBLE
100
AcDbLine
 10
2.21458479613666
 20
4.057892974993274
 30
0.0
 11
2.318293790710689
 21
4.117769390927974
 31
0.0
  0
LINE
  5
399
330
1F
100
AcDbEntity
  8
VISIBLE
100
AcDbLine
 10
2.353649129770018
 20
4.301481121636713
 30
0.0
 11
2.457358124344047
 21
4.361357537571412
 31
0.0
  0
ELLIPSE
  5
39A
330
1F
100
AcDbEntity
  8
VISIBLE
100
AcDbEllipse
 10
2.142789887620186
 20
4.538727811501616
 30
0.0
 11
-0.005900000000000016
 21
-8.881784197001252E-16
 31
0.0
210
0.0
220
0.0
230
1.0
 40
0.5773502691897198
 41
-0.785398163397397
 42
0.0
  0
LINE
  5
39B
330
1F
100
AcDbEntity
  8
VISIBLE
100
AcDbLine
 10
2.138617957611185
 20
4.541136476415352
 30
0.0
 11
2.500397357092261
 21
4.750009910093007
 31
0.0
  0
LINE
  5
39C
330
1F
100
AcDbEntity
  8
VISIBLE
100
AcDbLine
 10
2.540183898647032
 20
4.139107168242883
 30
0.0
 11
2.138617957611184
 21
3.907262964088457
 31
0.0
  0
ELLIPSE
  5
39D
330
1F
100
AcDbEntity
  8
VISIBLE
100
AcDbEllipse
 10
2.343066098278255
 20
3.847631497128035
 30
0.0
 11
-0.01041666666666696
 21
0.0
 31
0.0
210
0.0
220
0.0
230
1.0
 40
0.5773502691896488
 41
1.290629835944201
 42
1.995106685176976
  0
ELLIPSE
  5
39E
330
1F
100
AcDbEntity
  8
VISIBLE
100
AcDbEllipse
 10
2.192617345467797
 20
3.939664270074939
 30
0.0
 11
0.004166666666667319
 21
-0.007216878364871617
 31
0.0
210
0.0
220
0.0
230
1.0
 40
0.5773502691895464
 41
0.7853455318187417
 42
1.09163668249814
  0
ELLIPSE
  5
39F
330
1F
100
AcDbEntity
  8
VISIBLE
100
AcDbEllipse
 10
2.142789887620185
 20
3.90485429917472
 30
0.0
 11
-0.002949999999999786
 21
-0.005109549882328146
 31
0.0
210
0.0
220
0.0
230
1.0
 40
0.5773502691895948
 41
0.0
 42
0.7853981633974427
  0
ELLIPSE
  5
3A0
330
1F
100
AcDbEntity
  8
VISIBLE
100
AcDbEllipse
 10
2.142789887620185
 20
3.90485429917472
 30
0.0
 11
-0.002949999999999786
 21
-0.005109549882328146
 31
0.0
210
0.0
220
0.0
230
1.0
 40
0.5773502691895948
 41
-0.7853981633978745
 42
0.0
  0
LINE
  5
3A1
330
1F
100
AcDbEntity
  8
VISIBLE
100
AcDbLine
 10
2.318293790710689
 20
4.196697393750988
 30
0.0
 11
2.21458479613666
 21
4.136820977816288
 31
0.0
  0
LINE
  5
3A2
330
1F
100
AcDbEntity
  8
VISIBLE
100
AcDbLine
 10
2.141399244283851
 20
3.905657187479299
 30
0.0
 11
2.504569287101261
 21
4.115333509461533
 31
0.0
  0
LINE
  5
3A3
330
1F
100
AcDbEntity
  8
VISIBLE
100
AcDbLine
 10
2.614167144138115
 20
4.699457296216305
 30
0.0
 11
2.628458089212206
 21
4.691206415230804
 31
0.0
  0
LINE
  5
3A4
330
1F
100
AcDbEntity
  8
VISIBLE
100
AcDbLine
 10
2.13688988762019
 20
4.538727811501608
 30
0.0
 11
2.136889887620189
 21
3.904854299174718
 31
0.0
  0
LINE
  5
3A5
330
1F
100
AcDbEntity
  8
VISIBLE
100
AcDbLine
 10
2.87871933350805
 20
3.473152502310345
 30
0.0
 11
2.738656753388774
 21
3.554017670645603
 31
0.0
  0
LINE
  5
3A6
330
1F
100
AcDbEntity
  8
VISIBLE
100
AcDbLine
 10
2.538656753388774
 20
3.669487724483531
 30
0.0
 11
2.13983988762019
 21
3.899744749292389
 31
0.0
  0
ELLIPSE
  5
3A7
330
1F
100
AcDbEntity
  8
VISIBLE
100
AcDbEllipse
 10
2.465136298937107
 20
4.175005801251009
 30
0.0
 11
-0.08783333333333543
 21
-0.1521317959314645
 31
0.0
210
0.0
220
0.0
230
1.0
 40
0.5773502691896364
 41
-0.1730838967972902
 42
-0.1454502025257063
  0
ELLIPSE
  5
3A8
330
1F
100
AcDbEntity
  8
VISIBLE
100
AcDbEllipse
 10
3.190274303043902
 20
4.300615219007764
 30
0.0
 11
0.06666666666666732
 21
-0.1154700538379254
 31
0.0
210
0.0
220
0.0
230
0.9999999999999999
 40
0.5773502691896301
 41
-3.141592653589782
 42
0.0
  0
ELLIPSE
  5
3A9
330
1F
100
AcDbEntity
  8
VISIBLE
100
AcDbEllipse
 10
3.178489190024127
 20
4.293811080833366
 30
0.0
 11
0.06666666666666732
 21
-0.1154700538379254
 31
0.0
210
0.0
220
0.0
230
1.0
 40
0.5773502691896273
 41
-3.141592653589793
 42
0.0
  0
LINE
  5
3AA
330
1F
100
AcDbEntity
  8
VISIBLE
100
AcDbLine
 10
3.123607636377235
 20
4.416085272845689
 30
0.0
 11
3.111822523357459
 21
4.409281134671291
 31
0.0
  0
LINE
  5
3AB
330
1F
100
AcDbEntity
  8
VISIBLE
100
AcDbLine
 10
3.25694096971057
 20
4.185145165169839
 30
0.0
 11
3.245155856690793
 21
4.178341026995441
 31
0.0
  0
ELLIPSE
  5
3AC
330
1F
100
AcDbEntity
  8
VISIBLE
100
AcDbEllipse
 10
3.193587328101837
 20
4.210249003522533
 30
0.0
 11
-0.003149999999999764
 21
0.005455960043841301
 31
0.0
210
0.0
220
0.0
230
1.0
 40
0.5773502691896627
 41
3.141592653589778
 42
4.971983881904254
  0
ELLIPSE
  5
3AD
330
1F
100
AcDbEntity
  8
VISIBLE
100
AcDbEllipse
 10
3.193587328101837
 20
4.210249003522533
 30
0.0
 11
-0.003149999999999764
 21
0.005455960043841301
 31
0.0
210
0.0
220
0.0
230
1.0
 40
0.5773502691896627
 41
0.0
 42
3.141592653589778
  0
ELLIPSE
  5
3AE
330
1F
100
AcDbEntity
  8
VISIBLE
100
AcDbEllipse
 10
3.193587328101837
 20
4.210249003522533
 30
0.0
 11
-0.003149999999999764
 21
0.005455960043841301
 31
0.0
210
0.0
220
0.0
230
1.0
 40
0.5773502691896627
 41
-1.311201425275332
 42
0.0
  0
ELLIPSE
  5
3AF
330
1F
100
AcDbEntity
  8
VISIBLE
100
AcDbEllipse
 10
3.190274303043902
 20
4.300615219007764
 30
0.0
 11
-0.04475500077189042
 21
0.07751793522969752
 31
0.0
210
0.0
220
0.0
230
1.0
 40
0.5773502691896346
 41
-1.311201425275302
 42
-0.0395090360774573
  0
ELLIPSE
  5
3B0
330
1F
100
AcDbEntity
  8
VISIBLE
100
AcDbEllipse
 10
3.190274303043902
 20
4.300615219007764
 30
0.0
 11
-0.04475500077189042
 21
0.07751793522969752
 31
0.0
210
0.0
220
0.0
230
1.0
 40
0.5773502691896346
 41
3.181101689667239
 42
4.971983881904285
  0
ELLIPSE
  5
3B1
330
1F
100
AcDbEntity
  8
VISIBLE
100
AcDbEllipse
 10
3.263277364076556
 20
4.308686622472154
 30
0.0
 11
-0.003149999999999764
 21
0.00545596004384219
 31
0.0
210
0.0
220
0.0
230
0.9999999999999999
 40
0.5773502691895217
 41
3.141592653589914
 42
4.971983881904448
  0
ELLIPSE
  5
3B2
330
1F
100
AcDbEntity
  8
VISIBLE
100
AcDbEllipse
 10
3.263277364076556
 20
4.308686622472154
 30
0.0
 11
-0.003149999999999764
 21
0.00545596004384219
 31
0.0
210
0.0
220
0.0
230
0.9999999999999999
 40
0.5773502691895217
 41
0.0
 42
3.141592653589914
  0
ELLIPSE
  5
3B3
330
1F
100
AcDbEntity
  8
VISIBLE
100
AcDbEllipse
 10
3.263277364076556
 20
4.308686622472154
 30
0.0
 11
-0.003149999999999764
 21
0.00545596004384219
 31
0.0
210
0.0
220
0.0
230
0.9999999999999999
 40
0.5773502691895217
 41
-1.311201425275138
 42
0.0
  0
ELLIPSE
  5
3B4
330
1F
100
AcDbEntity
  8
VISIBLE
100
AcDbEllipse
 10
3.190274303043902
 20
4.300615219007764
 30
0.0
 11
-0.06666666666666732
 21
0.1154700538379245
 31
0.0
210
0.0
220
0.0
230
1.0
 40
0.5773502691896306
 41
0.0
 42
3.141592653589787
  0
ELLIPSE
  5
3B5
330
1F
100
AcDbEntity
  8
VISIBLE
100
AcDbEllipse
 10
3.193809836949835
 20
4.302656460460082
 30
0.0
 11
-0.04475500077189042
 21
0.07751793522969752
 31
0.0
210
0.0
220
0.0
230
1.0
 40
0.5773502691896303
 41
-1.311201425275299
 42
0.0
  0
ELLIPSE
  5
3B6
330
1F
100
AcDbEntity
  8
VISIBLE
100
AcDbEllipse
 10
3.193809836949835
 20
4.302656460460082
 30
0.0
 11
-0.04475500077189042
 21
0.07751793522969752
 31
0.0
210
0.0
220
0.0
230
1.0
 40
0.5773502691896303
 41
0.0
 42
3.141592653589793
  0
ELLIPSE
  5
3B7
330
1F
100
AcDbEntity
  8
VISIBLE
100
AcDbEllipse
 10
3.193809836949835
 20
4.302656460460082
 30
0.0
 11
-0.04475500077189042
 21
0.07751793522969752
 31
0.0
210
0.0
220
0.0
230
1.0
 40
0.5773502691896303
 41
3.141592653589793
 42
4.971983881904286
  0
ELLIPSE
  5
3B8
330
1F
100
AcDbEntity
  8
VISIBLE
100
AcDbEllipse
 10
3.193809836949835
 20
4.302656460460082
 30
0.0
 11
-0.06666666666666776
 21
0.1154700538379245
 31
0.0
210
0.0
220
0.0
230
1.0
 40
0.5773502691896325
 41
3.141592653589788
 42
4.971983881904285
  0
ELLIPSE
  5
3B9
330
1F
100
AcDbEntity
  8
VISIBLE
100
AcDbEllipse
 10
3.193809836949835
 20
4.302656460460082
 30
0.0
 11
-0.06666666666666776
 21
0.1154700538379245
 31
0.0
210
0.0
220
0.0
230
1.0
 40
0.5773502691896325
 41
0.0
 42
3.141592653589788
  0
ELLIPSE
  5
3BA
330
1F
100
AcDbEntity
  8
VISIBLE
100
AcDbEllipse
 10
3.193809836949835
 20
4.302656460460082
 30
0.0
 11
-0.06666666666666776
 21
0.1154700538379245
 31
0.0
210
0.0
220
0.0
230
1.0
 40
0.5773502691896325
 41
-1.311201425275301
 42
0.0
  0
ELLIPSE
  5
3BB
330
1F
100
AcDbEntity
  8
VISIBLE
100
AcDbEllipse
 10
3.124496128546243
 20
4.389119440497958
 30
0.0
 11
-0.003150000000000208
 21
0.005455960043842188
 31
0.0
210
0.0
220
0.0
230
0.9999999999999998
 40
0.577350269189511
 41
3.141592653589808
 42
4.971983881904342
  0
ELLIPSE
  5
3BC
330
1F
100
AcDbEntity
  8
VISIBLE
100
AcDbEllipse
 10
3.124496128546243
 20
4.389119440497958
 30
0.0
 11
-0.003150000000000208
 21
0.005455960043842188
 31
0.0
210
0.0
220
0.0
230
0.9999999999999998
 40
0.577350269189511
 41
0.0
 42
3.141592653589808
  0
ELLIPSE
  5
3BD
330
1F
100
AcDbEntity
  8
VISIBLE
100
AcDbEllipse
 10
3.124496128546243
 20
4.389119440497958
 30
0.0
 11
-0.003150000000000208
 21
0.005455960043842188
 31
0.0
210
0.0
220
0.0
230
0.9999999999999998
 40
0.577350269189511
 41
-1.311201425275244
 42
0.0
  0
LINE
  5
3BE
330
1F
100
AcDbEntity
  8
VISIBLE
100
AcDbLine
 10
3.25694096971057
 20
4.185145165169838
 30
0.0
 11
3.260476503616502
 21
4.187186406622158
 31
0.0
  0
LINE
  5
3BF
330
1F
100
AcDbEntity
  8
VISIBLE
100
AcDbLine
 10
3.123607636377235
 20
4.416085272845688
 30
0.0
 11
3.127143170283168
 21
4.418126514298007
 31
0.0
  0
LINE
  5
3C0
330
1F
100
AcDbEntity
  8
VISIBLE
100
AcDbLine
 10
2.639178848013143
 20
4.183225861416868
 30
0.0
 11
2.639178848013143
 21
4.161941194704959
 31
0.0
  0
ELLIPSE
  5
3C1
330
1F
100
AcDbEntity
  8
VISIBLE
100
AcDbEllipse
 10
2.550319095844033
 20
4.144958727072859
 30
0.0
 11
-0.005900000000000016
 21
0.0
 31
0.0
210
0.0
220
0.0
230
1.0
 40
0.5773502691897198
 41
-2.356194490192517
 42
-0.7853981633973293
  0
ELLIPSE
  5
3C2
330
1F
100
AcDbEntity
  8
VISIBLE
100
AcDbEllipse
 10
2.621312616675163
 20
4.179687048314984
 30
0.0
 11
0.01249999999999973
 21
-0.02165063509461085
 31
0.0
210
0.0
220
0.0
230
1.0
 40
0.5773502691896211
 41
0.1114822457514539
 42
0.2369475313806688
  0
LINE
  5
3C3
330
1F
100
AcDbEntity
  8
VISIBLE
100
AcDbLine
 10
2.609008958682517
 20
4.179359788431417
 30
0.0
 11
2.609008958682517
 21
4.200644455143326
 31
0.0
  0
ELLIPSE
  5
3C4
330
1F
100
AcDbEntity
  8
VISIBLE
100
AcDbEllipse
 10
3.301785042437022
 20
4.356295258769653
 30
0.0
 11
0.002949999999999786
 21
0.005109549882328146
 31
0.0
210
0.0
220
0.0
230
1.0
 40
0.5773502691896975
 41
-0.7853981633973246
 42
0.0
  0
LINE
  5
3C5
330
1F
100
AcDbEntity
  8
VISIBLE
100
AcDbLine
 10
2.504569287101264
 20
4.113727732852373
 30
0.0
 11
2.550319095844033
 21
4.140141397245385
 31
0.0
  0
LINE
  5
3C6
330
1F
100
AcDbEntity
  8
VISIBLE
100
AcDbLine
 10
2.50317864376493
 20
4.119347950984425
 30
0.0
 11
2.548928452507699
 21
4.145761615377437
 31
0.0
  0
LINE
  5
3C7
330
1F
100
AcDbEntity
  8
VISIBLE
100
AcDbLine
 10
2.500397357092264
 20
4.766149325842672
 30
0.0
 11
2.546147165835033
 21
4.792562990235684
 31
0.0
  0
LINE
  5
3C8
330
1F
100
AcDbEntity
  8
VISIBLE
100
AcDbLine
 10
3.305956972446022
 20
4.35870392368339
 30
0.0
 11
3.305956972446022
 21
3.713508325434302
 31
0.0
  0
LINE
  5
3C9
330
1F
100
AcDbEntity
  8
VISIBLE
100
AcDbLine
 10
2.639178848013144
 20
4.680200113674877
 30
0.0
 11
2.639178848013144
 21
4.658915446962968
 31
0.0
  0
LINE
  5
3CA
330
1F
100
AcDbEntity
  8
VISIBLE
100
AcDbLine
 10
2.609008958682517
 20
4.676334040689426
 30
0.0
 11
2.609008958682517
 21
4.697618707401335
 31
0.0
  0
LINE
  5
3CB
330
1F
100
AcDbEntity
  8
VISIBLE
100
AcDbLine
 10
2.550319095844034
 20
4.794971655149421
 30
0.0
 11
2.546147165835033
 21
4.792562990235684
 31
0.0
  0
LINE
  5
3CC
330
1F
100
AcDbEntity
  8
VISIBLE
100
AcDbLine
 10
2.550319095844033
 20
4.143352950463701
 30
0.0
 11
2.504569287101264
 21
4.116939286070688
 31
0.0
  0
ELLIPSE
  5
3CD
330
1F
100
AcDbEntity
  8
VISIBLE
100
AcDbEllipse
 10
2.550319095844033
 20
4.144958727072859
 30
0.0
 11
0.00295000000000023
 21
0.005109549882328146
 31
0.0
210
0.0
220
0.0
230
1.0
 40
0.5773502691896107
 41
3.926990816987298
 42
5.497787143782078
  0
ELLIPSE
  5
3CE
330
1F
100
AcDbEntity
  8
VISIBLE
100
AcDbEllipse
 10
2.550319095844034
 20
4.790154325321947
 30
0.0
 11
0.005900000000000016
 21
0.0
 31
0.0
210
0.0
220
0.0
230
1.0
 40
0.5773502691895692
 41
0.7853981633974599
 42
2.356194490192386
  0
ELLIPSE
  5
3CF
330
1F
100
AcDbEntity
  8
VISIBLE
100
AcDbEllipse
 10
2.62409390334783
 20
4.181292824924142
 30
0.0
 11
0.01250000000000018
 21
-0.02165063509461085
 31
0.0
210
0.0
220
0.0
230
0.9999999999999998
 40
0.5773502691896314
 41
0.0
 42
0.2369475313806633
  0
ELLIPSE
  5
3D0
330
1F
100
AcDbEntity
  8
VISIBLE
100
AcDbEllipse
 10
2.62409390334783
 20
4.181292824924142
 30
0.0
 11
0.01250000000000018
 21
-0.02165063509461085
 31
0.0
210
0.0
220
0.0
230
0.9999999999999998
 40
0.5773502691896314
 41
-1.807743858175535
 42
0.0
  0
LINE
  5
3D1
330
1F
100
AcDbEntity
  8
VISIBLE
100
AcDbLine
 10
2.639178848013144
 20
4.658915446962968
 30
0.0
 11
2.636397561340476
 21
4.65730967035381
 31
0.0
  0
LINE
  5
3D2
330
1F
100
AcDbEntity
  8
VISIBLE
100
AcDbLine
 10
2.500397357092263
 20
4.120953727593583
 30
0.0
 11
2.500397357092264
 21
4.766149325842672
 31
0.0
  0
LINE
  5
3D3
330
1F
100
AcDbEntity
  8
VISIBLE
100
AcDbLine
 10
2.639178848013143
 20
4.161941194704959
 30
0.0
 11
2.636397561340476
 21
4.160335418095801
 31
0.0
  0
ELLIPSE
  5
3D4
330
1F
100
AcDbEntity
  8
VISIBLE
100
AcDbEllipse
 10
2.550319095844037
 20
4.144958727072855
 30
0.0
 11
-0.0009833333333322261
 21
-0.001703183294106126
 31
0.0
210
0.0
220
0.0
230
1.0
 40
0.5773502691880648
 41
0.7853981633991973
 42
2.356194490194872
  0
LINE
  5
3D5
330
1F
100
AcDbEntity
  8
VISIBLE
100
AcDbLine
 10
2.50317864376493
 20
4.119347950984425
 30
0.0
 11
2.500397357092263
 21
4.120953727593583
 31
0.0
  0
LINE
  5
3D6
330
1F
100
AcDbEntity
  8
VISIBLE
100
AcDbLine
 10
3.301785042437022
 20
3.706282330693091
 30
0.0
 11
3.267820346714028
 21
3.686672804474477
 31
0.0
  0
LINE
  5
3D7
330
1F
100
AcDbEntity
  8
VISIBLE
100
AcDbLine
 10
2.504569287101264
 20
4.116939286070688
 30
0.0
 11
2.504569287101264
 21
4.113727732852373
 31
0.0
  0
LINE
  5
3D8
330
1F
100
AcDbEntity
  8
VISIBLE
100
AcDbLine
 10
3.244250120674476
 20
3.686672804474477
 30
0.0
 11
2.504569287101264
 21
4.113727732852373
 31
0.0
  0
LINE
  5
3D9
330
1F
100
AcDbEntity
  8
VISIBLE
100
AcDbLine
 10
2.639178848013144
 20
4.680200113674877
 30
0.0
 11
2.636397561340476
 21
4.678594337065719
 31
0.0
  0
ELLIPSE
  5
3DA
330
1F
100
AcDbEntity
  8
VISIBLE
100
AcDbEllipse
 10
2.624093903347831
 20
4.678267077182151
 30
0.0
 11
0.01249999999999973
 21
-0.02165063509460996
 31
0.0
210
0.0
220
0.0
230
1.0
 40
0.5773502691896875
 41
0.0
 42
0.236947531380613
  0
ELLIPSE
  5
3DB
330
1F
100
AcDbEntity
  8
VISIBLE
100
AcDbEllipse
 10
2.624093903347831
 20
4.678267077182151
 30
0.0
 11
0.01249999999999973
 21
-0.02165063509460996
 31
0.0
210
0.0
220
0.0
230
1.0
 40
0.5773502691896875
 41
-1.80774385817556
 42
0.0
  0
LINE
  5
3DC
330
1F
100
AcDbEntity
  8
VISIBLE
100
AcDbLine
 10
2.546147165835032
 20
4.147367391986595
 30
0.0
 11
2.500397357092263
 21
4.120953727593583
 31
0.0
  0
ELLIPSE
  5
3DD
330
1F
100
AcDbEntity
  8
VISIBLE
100
AcDbEllipse
 10
3.301785042437022
 20
3.711099660520565
 30
0.0
 11
-0.00295000000000023
 21
-0.005109549882328146
 31
0.0
210
0.0
220
0.0
230
1.0
 40
0.5773502691895078
 41
0.7853981633975938
 42
2.356194490192288
  0
ELLIPSE
  5
3DE
330
1F
100
AcDbEntity
  8
VISIBLE
100
AcDbEllipse
 10
3.256035233694252
 20
3.693476942648874
 30
0.0
 11
0.01666666666666705
 21
0.0
 31
0.0
210
0.0
220
0.0
230
1.0
 40
0.5773502691896093
 41
3.926990816987254
 42
5.497787143782143
  0
ELLIPSE
  5
3DF
330
1F
100
AcDbEntity
  8
VISIBLE
100
AcDbEllipse
 10
2.550319095844034
 20
4.790154325321947
 30
0.0
 11
0.002949999999999786
 21
0.005109549882328146
 31
0.0
210
0.0
220
0.0
230
1.0
 40
0.5773502691896975
 41
0.0
 42
0.7853981633973539
  0
ELLIPSE
  5
3E0
330
1F
100
AcDbEntity
  8
VISIBLE
100
AcDbEllipse
 10
2.550319095844034
 20
4.790154325321947
 30
0.0
 11
0.002949999999999786
 21
0.005109549882328146
 31
0.0
210
0.0
220
0.0
230
1.0
 40
0.5773502691896975
 41
-0.7853981633974558
 42
0.0
  0
ELLIPSE
  5
3E1
330
1F
100
AcDbEntity
  8
VISIBLE
100
AcDbEllipse
 10
2.624093903347831
 20
4.678267077182151
 30
0.0
 11
0.01249999999999973
 21
-0.02165063509460996
 31
0.0
210
0.0
220
0.0
230
1.0
 40
0.5773502691896875
 41
-3.141592653589828
 42
-2.904645122209193
  0
ELLIPSE
  5
3E2
330
1F
100
AcDbEntity
  8
VISIBLE
100
AcDbEllipse
 10
2.624093903347831
 20
4.678267077182151
 30
0.0
 11
0.01249999999999973
 21
-0.02165063509460996
 31
0.0
210
0.0
220
0.0
230
1.0
 40
0.5773502691896875
 41
-4.949336511765351
 42
-3.141592653589828
  0
LINE
  5
3E3
330
1F
100
AcDbEntity
  8
VISIBLE
100
AcDbLine
 10
2.636397561340476
 20
4.160335418095801
 30
0.0
 11
2.636397561340476
 21
4.18162008480771
 31
0.0
  0
LINE
  5
3E4
330
1F
100
AcDbEntity
  8
VISIBLE
100
AcDbLine
 10
2.636397561340476
 20
4.65730967035381
 30
0.0
 11
2.636397561340476
 21
4.678594337065719
 31
0.0
  0
ELLIPSE
  5
3E5
330
1F
100
AcDbEntity
  8
VISIBLE
100
AcDbEllipse
 10
2.621312616675163
 20
4.179687048314984
 30
0.0
 11
0.01249999999999973
 21
-0.02165063509461085
 31
0.0
210
0.0
220
0.0
230
1.0
 40
0.5773502691896211
 41
-4.949336511765313
 42
-3.25307489934119
  0
ELLIPSE
  5
3E6
330
1F
100
AcDbEntity
  8
VISIBLE
100
AcDbEllipse
 10
2.62409390334783
 20
4.181292824924142
 30
0.0
 11
0.01250000000000018
 21
-0.02165063509461085
 31
0.0
210
0.0
220
0.0
230
0.9999999999999998
 40
0.5773502691896314
 41
-3.141592653589793
 42
-2.904645122209191
  0
ELLIPSE
  5
3E7
330
1F
100
AcDbEntity
  8
VISIBLE
100
AcDbEllipse
 10
2.62409390334783
 20
4.181292824924142
 30
0.0
 11
0.01250000000000018
 21
-0.02165063509461085
 31
0.0
210
0.0
220
0.0
230
0.9999999999999998
 40
0.5773502691896314
 41
-4.949336511765329
 42
-3.141592653589793
  0
ELLIPSE
  5
3E8
330
1F
100
AcDbEntity
  8
VISIBLE
100
AcDbEllipse
 10
2.621312616675163
 20
4.676661300572993
 30
0.0
 11
0.01250000000000018
 21
-0.02165063509461085
 31
0.0
210
0.0
220
0.0
230
0.9999999999999998
 40
0.5773502691896469
 41
0.1114822457514566
 42
0.2369475313806572
  0
LINE
  5
3E9
330
1F
100
AcDbEntity
  8
VISIBLE
100
AcDbLine
 10
2.551709739180366
 20
4.145761615377437
 30
0.0
 11
2.554491025853034
 21
4.147367391986595
 31
0.0
  0
ELLIPSE
  5
3EA
330
1F
100
AcDbEntity
  8
VISIBLE
100
AcDbEllipse
 10
2.550319095844033
 20
4.144958727072859
 30
0.0
 11
-0.001966666666666672
 21
0.0
 31
0.0
210
0.0
220
0.0
230
1.0
 40
0.5773502691894187
 41
-2.356194490192334
 42
-0.7853981633972997
  0
ELLIPSE
  5
3EB
330
1F
100
AcDbEntity
  8
VISIBLE
100
AcDbEllipse
 10
2.621312616675163
 20
4.676661300572993
 30
0.0
 11
0.01250000000000018
 21
-0.02165063509461085
 31
0.0
210
0.0
220
0.0
230
0.9999999999999998
 40
0.5773502691896469
 41
-4.949336511765336
 42
-3.253074899341265
  0
LINE
  5
3EC
330
1F
100
AcDbEntity
  8
VISIBLE
100
AcDbLine
 10
2.639178848013143
 20
4.183225861416868
 30
0.0
 11
2.636397561340476
 21
4.18162008480771
 31
0.0
  0
LINE
  5
3ED
330
1F
100
AcDbEntity
  8
VISIBLE
100
AcDbLine
 10
2.553269095844033
 20
4.795263875204276
 30
0.0
 11
3.304735042437023
 21
4.361404808651983
 31
0.0
  0
ELLIPSE
  5
3EE
330
1F
100
AcDbEntity
  8
VISIBLE
100
AcDbEllipse
 10
3.300488680004847
 20
4.34490513146571
 30
0.0
 11
-0.008199999999999985
 21
0.0
 31
0.0
210
0.0
220
0.0
230
1.0
 40
0.5773502691896766
 41
-3.141592653589793
 42
-2.356194490192327
  0
LINE
  5
3EF
330
1F
100
AcDbEntity
  8
VISIBLE
100
AcDbLine
 10
3.305956972446022
 20
3.714297605462531
 30
0.0
 11
3.306286955610576
 21
3.714107089593649
 31
0.0
  0
LINE
  5
3F0
330
1F
100
AcDbEntity
  8
VISIBLE
100
AcDbLine
 10
3.306286955610577
 20
4.348252767447514
 30
0.0
 11
3.305956972446023
 21
4.348443283316397
 31
0.0
  0
ELLIPSE
  5
3F1
330
1F
100
AcDbEntity
  8
VISIBLE
100
AcDbEllipse
 10
3.300488680004846
 20
3.710759453611845
 30
0.0
 11
-0.008199999999999985
 21
0.0
 31
0.0
210
0.0
220
0.0
230
1.0
 40
0.5773502691896224
 41
-3.141592653589793
 42
-2.356194490192319
  0
ELLIPSE
  5
3F2
330
1F
100
AcDbEntity
  8
VISIBLE
100
AcDbEllipse
 10
3.300488680004846
 20
3.710759453611845
 30
0.0
 11
-0.008199999999999985
 21
0.0
 31
0.0
210
0.0
220
0.0
230
1.0
 40
0.5773502691896224
 41
1.680843875352904
 42
3.141592653589793
  0
LINE
  5
3F3
330
1F
100
AcDbEntity
  8
VISIBLE
100
AcDbLine
 10
3.308688680004847
 20
4.344905131465711
 30
0.0
 11
3.308688680004846
 21
3.710759453611845
 31
0.0
  0
ELLIPSE
  5
3F4
330
1F
100
AcDbEntity
  8
VISIBLE
100
AcDbEllipse
 10
3.202295118324075
 20
4.13064784741131
 30
0.0
 11
-0.01769546583931714
 21
0.03064944589729635
 31
0.0
210
0.0
220
0.0
230
0.9999999999999998
 40
0.5773502691896336
 41
0.0
 42
0.785398163397451
  0
ELLIPSE
  5
3F5
330
1F
100
AcDbEntity
  8
VISIBLE
100
AcDbEllipse
 10
3.202295118324075
 20
4.13064784741131
 30
0.0
 11
-0.01769546583931714
 21
0.03064944589729635
 31
0.0
210
0.0
220
0.0
230
0.9999999999999998
 40
0.5773502691896336
 41
3.14159265358979
 42
6.283185307179586
  0
ELLIPSE
  5
3F6
330
1F
100
AcDbEntity
  8
VISIBLE
100
AcDbEllipse
 10
3.202295118324075
 20
4.13064784741131
 30
0.0
 11
-0.01769546583931714
 21
0.03064944589729635
 31
0.0
210
0.0
220
0.0
230
0.9999999999999998
 40
0.5773502691896336
 41
0.785398163397451
 42
3.14159265358979
  0
ELLIPSE
  5
3F7
330
1F
100
AcDbEntity
  8
VISIBLE
100
AcDbEllipse
 10
3.178489190024128
 20
4.116903488299026
 30
0.0
 11
0.01944999999999952
 21
-0.03368838820721454
 31
0.0
210
0.0
220
0.0
230
0.9999999999999999
 40
0.577350269189657
 41
-0.7853981633974102
 42
0.0
  0
ELLIPSE
  5
3F8
330
1F
100
AcDbEntity
  8
VISIBLE
100
AcDbEllipse
 10
3.178489190024128
 20
4.116903488299026
 30
0.0
 11
0.01944999999999952
 21
-0.03368838820721454
 31
0.0
210
0.0
220
0.0
230
0.9999999999999999
 40
0.577350269189657
 41
-3.141592653589758
 42
-0.7853981633974101
  0
ELLIPSE
  5
3F9
330
1F
100
AcDbEntity
  8
VISIBLE
100
AcDbEllipse
 10
3.201352309282493
 20
4.130103516357358
 30
0.0
 11
-0.01769546583931714
 21
0.03064944589729723
 31
0.0
210
0.0
220
0.0
230
1.0
 40
0.577350269189621
 41
3.168235653595074
 42
6.256542307174352
  0
ELLIPSE
  5
3FA
330
1F
100
AcDbEntity
  8
VISIBLE
100
AcDbEllipse
 10
3.202295118324075
 20
4.13064784741131
 30
0.0
 11
0.01944999999999952
 21
-0.03368838820721543
 31
0.0
210
0.0
220
0.0
230
1.0
 40
0.5773502691896245
 41
-0.7853981633974262
 42
0.0
  0
ELLIPSE
  5
3FB
330
1F
100
AcDbEntity
  8
VISIBLE
100
AcDbEllipse
 10
3.202295118324075
 20
4.13064784741131
 30
0.0
 11
0.01944999999999952
 21
-0.03368838820721543
 31
0.0
210
0.0
220
0.0
230
1.0
 40
0.5773502691896245
 41
0.0
 42
3.141592653589847
  0
ELLIPSE
  5
3FC
330
1F
100
AcDbEntity
  8
VISIBLE
100
AcDbEllipse
 10
3.202295118324075
 20
4.13064784741131
 30
0.0
 11
0.01944999999999952
 21
-0.03368838820721543
 31
0.0
210
0.0
220
0.0
230
1.0
 40
0.5773502691896245
 41
-3.141592653589739
 42
-0.7853981633974261
  0
LINE
  5
3FD
330
1F
100
AcDbEntity
  8
VISIBLE
100
AcDbLine
 10
3.197939190024127
 20
4.083215100091811
 30
0.0
 11
3.221745118324074
 21
4.096959459204095
 31
0.0
  0
LINE
  5
3FE
330
1F
100
AcDbEntity
  8
VISIBLE
100
AcDbLine
 10
3.159039190024127
 20
4.150591876506241
 30
0.0
 11
3.182845118324074
 21
4.164336235618524
 31
0.0
  0
ELLIPSE
  5
3FF
330
1F
100
AcDbEntity
  8
VISIBLE
100
AcDbEllipse
 10
2.354562931433379
 20
2.1969152094518
 30
0.0
 11
-0.1999999999999997
 21
-4.440892098500626E-16
 31
0.0
210
0.0
220
0.0
230
1.0
 40
0.577350269189619
 41
1.830029471519894
 42
2.877179466004388
  0
ELLIPSE
  5
400
330
1F
100
AcDbEntity
  8
VISIBLE
100
AcDbEllipse
 10
3.064537741173434
 20
1.771273946028614
 30
0.0
 11
0.2000000000000002
 21
1.332267629550188E-15
 31
0.0
210
0.0
220
0.0
230
1.0
 40
0.5773502691896198
 41
1.830029471519889
 42
2.877179466004374
  0
ELLIPSE
  5
401
330
1F
100
AcDbEntity
  8
VISIBLE
100
AcDbEllipse
 10
2.767761450088876
 20
1.817986026094748
 30
0.0
 11
0.01666666666666661
 21
0.0
 31
0.0
210
0.0
220
0.0
230
1.0
 40
0.5773502691896246
 41
3.141592653589793
 42
5.495197122351969
  0
ELLIPSE
  5
402
330
1F
100
AcDbEntity
  8
VISIBLE
100
AcDbEllipse
 10
2.767761450088876
 20
1.817986026094748
 30
0.0
 11
0.01666666666666661
 21
0.0
 31
0.0
210
0.0
220
0.0
230
1.0
 40
0.5773502691896246
 41
0.0
 42
3.141592653589793
  0
ELLIPSE
  5
403
330
1F
100
AcDbEntity
  8
VISIBLE
100
AcDbEllipse
 10
2.767761450088876
 20
1.817986026094748
 30
0.0
 11
0.01666666666666661
 21
0.0
 31
0.0
210
0.0
220
0.0
230
1.0
 40
0.5773502691896246
 41
5.495197122351969
 42
6.283185307179586
  0
ELLIPSE
  5
404
330
1F
100
AcDbEntity
  8
VISIBLE
100
AcDbEllipse
 10
2.611961871784935
 20
2.143070562255196
 30
0.0
 11
-0.06666666666666687
 21
-8.881784197001252E-16
 31
0.0
210
0.0
220
0.0
230
1.0
 40
0.5773502691896208
 41
-1.575941529117814
 42
-0.2644131875854319
  0
ELLIPSE
  5
405
330
1F
100
AcDbEntity
  8
VISIBLE
100
AcDbEllipse
 10
2.611961871784935
 20
2.156678838603991
 30
0.0
 11
-0.06666666666666687
 21
0.0
 31
0.0
210
0.0
220
0.0
230
1.0
 40
0.5773502691896142
 41
-1.575941529117799
 42
-0.2644131875854239
  0
ELLIPSE
  5
406
330
1F
100
AcDbEntity
  8
VISIBLE
100
AcDbEllipse
 10
2.985168437693726
 20
1.956465764602343
 30
0.0
 11
0.01666666666666661
 21
0.0
 31
0.0
210
0.0
220
0.0
230
1.0
 40
0.5773502691896513
 41
3.926990816987234
 42
5.495197122351946
  0
ELLIPSE
  5
407
330
1F
100
AcDbEntity
  8
VISIBLE
100
AcDbEllipse
 10
2.985168437693726
 20
1.956465764602343
 30
0.0
 11
0.01666666666666661
 21
0.0
 31
0.0
210
0.0
220
0.0
230
1.0
 40
0.5773502691896513
 41
5.495197122351946
 42
5.497787143782132
  0
ELLIPSE
  5
408
330
1F
100
AcDbEntity
  8
VISIBLE
100
AcDbEllipse
 10
2.709550336303407
 20
1.977290439565809
 30
0.0
 11
0.3506444751154758
 21
-0.0807505877499617
 31
0.0
210
0.0
220
0.0
230
0.9999999999999998
 40
0.5351112396281934
 41
0.1226136127850696
 42
1.97226109303296
  0
ELLIPSE
  5
409
330
1F
100
AcDbEntity
  8
VISIBLE
100
AcDbEllipse
 10
2.709550336303407
 20
1.977290439565809
 30
0.0
 11
0.3506444751154758
 21
-0.0807505877499617
 31
0.0
210
0.0
220
0.0
230
0.9999999999999998
 40
0.5351112396281934
 41
0.1225801175773337
 42
0.1226136127850696
  0
ELLIPSE
  5
40A
330
1F
100
AcDbEntity
  8
VISIBLE
100
AcDbEllipse
 10
2.422920103465928
 20
2.034491154209745
 30
0.0
 11
-0.06666666666666687
 21
-4.440892098500626E-16
 31
0.0
210
0.0
220
0.0
230
1.0
 40
0.5773502691896242
 41
-1.3115631820699
 42
-0.0000348405375177
  0
ELLIPSE
  5
40B
330
1F
100
AcDbEntity
  8
VISIBLE
100
AcDbEllipse
 10
2.651339222517938
 20
2.150203129385665
 30
0.0
 11
0.01666666666666661
 21
0.0
 31
0.0
210
0.0
220
0.0
230
1.0
 40
0.577350269189598
 41
3.926990816987264
 42
5.495197122351914
  0
ELLIPSE
  5
40C
330
1F
100
AcDbEntity
  8
VISIBLE
100
AcDbEllipse
 10
2.651339222517938
 20
2.150203129385665
 30
0.0
 11
0.01666666666666661
 21
0.0
 31
0.0
210
0.0
220
0.0
230
1.0
 40
0.577350269189598
 41
5.495197122351914
 42
5.497787143782116
  0
ELLIPSE
  5
40D
330
1F
100
AcDbEntity
  8
VISIBLE
100
AcDbEllipse
 10
2.807138800821879
 20
1.811510316876422
 30
0.0
 11
0.06666666666666687
 21
4.440892098500626E-16
 31
0.0
210
0.0
220
0.0
230
1.0
 40
0.5773502691896208
 41
4.707243778061777
 42
6.018772119594175
  0
ELLIPSE
  5
40E
330
1F
100
AcDbEntity
  8
VISIBLE
100
AcDbEllipse
 10
2.985168437693726
 20
1.942857488253547
 30
0.0
 11
0.01666666666666661
 21
0.0
 31
0.0
210
0.0
220
0.0
230
1.0
 40
0.5773502691896246
 41
3.141592653589839
 42
5.495197122351904
  0
ELLIPSE
  5
40F
330
1F
100
AcDbEntity
  8
VISIBLE
100
AcDbEllipse
 10
2.985168437693726
 20
1.942857488253547
 30
0.0
 11
0.01666666666666661
 21
0.0
 31
0.0
210
0.0
220
0.0
230
1.0
 40
0.5773502691896246
 41
0.0
 42
3.141592653589839
  0
ELLIPSE
  5
410
330
1F
100
AcDbEntity
  8
VISIBLE
100
AcDbEllipse
 10
2.985168437693726
 20
1.942857488253547
 30
0.0
 11
0.01666666666666661
 21
0.0
 31
0.0
210
0.0
220
0.0
230
1.0
 40
0.5773502691896246
 41
5.495197122351904
 42
6.283185307179586
  0
ELLIPSE
  5
411
330
1F
100
AcDbEntity
  8
VISIBLE
100
AcDbEllipse
 10
2.422920103465927
 20
2.04809943055854
 30
0.0
 11
-0.06666666666666643
 21
0.0
 31
0.0
210
0.0
220
0.0
230
1.0
 40
0.5773502691896246
 41
-1.311563182069901
 42
-0.0000348405374948
  0
ELLIPSE
  5
412
330
1F
100
AcDbEntity
  8
VISIBLE
100
AcDbEllipse
 10
2.996180569140887
 20
1.920089724921873
 30
0.0
 11
0.06666666666666643
 21
0.0
 31
0.0
210
0.0
220
0.0
230
1.0
 40
0.577350269189628
 41
4.971622125109684
 42
6.283150466642097
  0
ELLIPSE
  5
413
330
1F
100
AcDbEntity
  8
VISIBLE
100
AcDbEllipse
 10
2.767761450088876
 20
1.831594302443544
 30
0.0
 11
0.01666666666666661
 21
0.0
 31
0.0
210
0.0
220
0.0
230
1.0
 40
0.5773502691896246
 41
3.926990816987306
 42
5.495197122351937
  0
ELLIPSE
  5
414
330
1F
100
AcDbEntity
  8
VISIBLE
100
AcDbEllipse
 10
2.767761450088876
 20
1.831594302443544
 30
0.0
 11
0.01666666666666661
 21
0.0
 31
0.0
210
0.0
220
0.0
230
1.0
 40
0.5773502691896246
 41
5.495197122351937
 42
5.497787143782073
  0
ELLIPSE
  5
415
330
1F
100
AcDbEntity
  8
VISIBLE
100
AcDbEllipse
 10
2.433932234913088
 20
2.011723390878071
 30
0.0
 11
0.01666666666666705
 21
4.440892098500626E-16
 31
0.0
210
0.0
220
0.0
230
1.0
 40
0.5773502691896093
 41
3.141592653589747
 42
5.495197122351911
  0
ELLIPSE
  5
416
330
1F
100
AcDbEntity
  8
VISIBLE
100
AcDbEllipse
 10
2.433932234913088
 20
2.011723390878071
 30
0.0
 11
0.01666666666666705
 21
4.440892098500626E-16
 31
0.0
210
0.0
220
0.0
230
1.0
 40
0.5773502691896093
 41
0.0
 42
3.141592653589747
  0
ELLIPSE
  5
417
330
1F
100
AcDbEntity
  8
VISIBLE
100
AcDbEllipse
 10
2.433932234913088
 20
2.011723390878071
 30
0.0
 11
0.01666666666666705
 21
4.440892098500626E-16
 31
0.0
210
0.0
220
0.0
230
1.0
 40
0.5773502691896093
 41
5.495197122351911
 42
6.283185307179586
  0
ELLIPSE
  5
418
330
1F
100
AcDbEntity
  8
VISIBLE
100
AcDbEllipse
 10
2.651339222517938
 20
2.13659485303687
 30
0.0
 11
0.01666666666666661
 21
0.0
 31
0.0
210
0.0
220
0.0
230
1.0
 40
0.5773502691896246
 41
3.141592653589793
 42
5.495197122351954
  0
ELLIPSE
  5
419
330
1F
100
AcDbEntity
  8
VISIBLE
100
AcDbEllipse
 10
2.651339222517938
 20
2.13659485303687
 30
0.0
 11
0.01666666666666661
 21
0.0
 31
0.0
210
0.0
220
0.0
230
1.0
 40
0.5773502691896246
 41
0.0
 42
3.141592653589793
  0
ELLIPSE
  5
41A
330
1F
100
AcDbEntity
  8
VISIBLE
100
AcDbEllipse
 10
2.651339222517938
 20
2.13659485303687
 30
0.0
 11
0.01666666666666661
 21
0.0
 31
0.0
210
0.0
220
0.0
230
1.0
 40
0.5773502691896246
 41
5.495197122351954
 42
6.283185307179586
  0
ELLIPSE
  5
41B
330
1F
100
AcDbEntity
  8
VISIBLE
100
AcDbEllipse
 10
2.709550336303407
 20
1.990898715914605
 30
0.0
 11
0.3506444751154758
 21
-0.08075058774996147
 31
0.0
210
0.0
220
0.0
230
1.0
 40
0.5351112396281921
 41
0.1226136127850683
 42
1.97226109303296
  0
ELLIPSE
  5
41C
330
1F
100
AcDbEntity
  8
VISIBLE
100
AcDbEllipse
 10
2.354562931433379
 20
2.183306933103005
 30
0.0
 11
-0.1999999999999997
 21
-1.776356839400250E-15
 31
0.0
210
0.0
220
0.0
230
1.0
 40
0.5773502691896234
 41
1.830029471519891
 42
2.877179466004375
  0
ELLIPSE
  5
41D
330
1F
100
AcDbEntity
  8
VISIBLE
100
AcDbEllipse
 10
2.433932234913088
 20
2.025331667226866
 30
0.0
 11
0.01666666666666705
 21
0.0
 31
0.0
210
0.0
220
0.0
230
1.0
 40
0.5773502691895827
 41
3.926990816987245
 42
5.495197122351951
  0
ELLIPSE
  5
41E
330
1F
100
AcDbEntity
  8
VISIBLE
100
AcDbEllipse
 10
2.433932234913088
 20
2.025331667226866
 30
0.0
 11
0.01666666666666705
 21
0.0
 31
0.0
210
0.0
220
0.0
230
1.0
 40
0.5773502691895827
 41
5.495197122351951
 42
5.497787143782153
  0
ELLIPSE
  5
41F
330
1F
100
AcDbEntity
  8
VISIBLE
100
AcDbEllipse
 10
2.709550336303407
 20
1.977290439565809
 30
0.0
 11
0.3506444751154758
 21
-0.0807505877499617
 31
0.0
210
0.0
220
0.0
230
0.9999999999999998
 40
0.5351112396281934
 41
-3.018979040804729
 42
-1.169331560556832
  0
ELLIPSE
  5
420
330
1F
100
AcDbEntity
  8
VISIBLE
100
AcDbEllipse
 10
2.709550336303407
 20
1.977290439565809
 30
0.0
 11
0.3506444751154758
 21
-0.0807505877499617
 31
0.0
210
0.0
220
0.0
230
0.9999999999999998
 40
0.5351112396281934
 41
-3.019012536012458
 42
-3.018979040804729
  0
ELLIPSE
  5
421
330
1F
100
AcDbEntity
  8
VISIBLE
100
AcDbEllipse
 10
2.638656753388773
 20
3.746472238903826
 30
0.0
 11
0.1000000000000001
 21
4.440892098500626E-16
 31
0.0
210
0.0
220
0.0
230
1.0
 40
0.5773502691896176
 41
0.0
 42
3.141592653589793
  0
LINE
  5
422
330
1F
100
AcDbEntity
  8
VISIBLE
100
AcDbLine
 10
2.738656753388773
 20
3.746472238903826
 30
0.0
 11
2.73865675338878
 21
2.181621467635243
 31
0.0
  0
LINE
  5
423
330
1F
100
AcDbEntity
  8
VISIBLE
100
AcDbLine
 10
2.538656753388773
 20
3.746472238903825
 30
0.0
 11
2.538656753388781
 21
2.151787742878945
 31
0.0
  0
ELLIPSE
  5
424
330
1F
100
AcDbEntity
  8
VISIBLE
100
AcDbEllipse
 10
3.074705935120477
 20
3.73966810072943
 30
0.0
 11
0.03333333333333321
 21
0.0
 31
0.0
210
0.0
220
0.0
230
1.0
 40
0.5773502691896246
 41
0.0
 42
0.7853981633974383
  0
ELLIPSE
  5
425
330
1F
100
AcDbEntity
  8
VISIBLE
100
AcDbEllipse
 10
3.074705935120477
 20
3.73966810072943
 30
0.0
 11
0.03333333333333321
 21
0.0
 31
0.0
210
0.0
220
0.0
230
1.0
 40
0.5773502691896246
 41
5.497787143782148
 42
6.283185307179586
  0
LINE
  5
426
330
1F
100
AcDbEntity
  8
VISIBLE
100
AcDbLine
 10
2.768292996606307
 20
3.562760508195089
 30
0.0
 11
2.738656753388774
 21
3.579871001194501
 31
0.0
  0
LINE
  5
427
330
1F
100
AcDbEntity
  8
VISIBLE
100
AcDbLine
 10
2.538656753388773
 20
3.695341055032424
 30
0.0
 11
2.320458701854826
 21
3.821317758822198
 31
0.0
  0
LINE
  5
428
330
1F
100
AcDbEntity
  8
VISIBLE
100
AcDbLine
 10
3.074705935120477
 20
3.740756762837333
 30
0.0
 11
3.06772914821277
 21
3.744784812636577
 31
0.0
  0
LINE
  5
429
330
1F
100
AcDbEntity
  8
VISIBLE
100
AcDbLine
 10
2.344028927894378
 20
3.836014697278897
 30
0.0
 11
2.33705214098667
 21
3.840042747078141
 31
0.0
  0
LINE
  5
42A
330
1F
100
AcDbEntity
  8
VISIBLE
100
AcDbLine
 10
2.791863222645858
 20
3.567224022837495
 30
0.0
 11
2.791863222645858
 21
3.577457446651788
 31
0.0
  0
LINE
  5
42B
330
1F
100
AcDbEntity
  8
VISIBLE
100
AcDbLine
 10
2.626871640368996
 20
3.989080589650148
 30
0.0
 11
2.642710832267575
 21
3.998225351356539
 31
0.0
  0
LINE
  5
42C
330
1F
100
AcDbEntity
  8
VISIBLE
100
AcDbLine
 10
2.344028927894378
 20
3.825781273464603
 30
0.0
 11
2.344028927894378
 21
3.836014697278897
 31
0.0
  0
LINE
  5
42D
330
1F
100
AcDbEntity
  8
VISIBLE
100
AcDbLine
 10
3.081682722028185
 20
3.744784812636577
 30
0.0
 11
3.074705935120477
 21
3.740756762837333
 31
0.0
  0
LINE
  5
42E
330
1F
100
AcDbEntity
  8
VISIBLE
100
AcDbLine
 10
2.359868119792956
 20
3.834926035170994
 30
0.0
 11
2.344028927894378
 21
3.844070796877384
 31
0.0
  0
LINE
  5
42F
330
1F
100
AcDbEntity
  8
VISIBLE
100
AcDbLine
 10
2.642710832267575
 20
3.998225351356539
 30
0.0
 11
2.626871640368996
 21
4.007370113062929
 31
0.0
  0
LINE
  5
430
330
1F
100
AcDbEntity
  8
VISIBLE
100
AcDbLine
 10
2.320458701854826
 20
3.848534311519789
 30
0.0
 11
2.603301414329445
 21
4.011833627705333
 31
0.0
  0
LINE
  5
431
330
1F
100
AcDbEntity
  8
VISIBLE
100
AcDbLine
 10
2.798840009553565
 20
3.581485496451032
 30
0.0
 11
2.791863222645858
 21
3.577457446651788
 31
0.0
  0
LINE
  5
432
330
1F
100
AcDbEntity
  8
VISIBLE
100
AcDbLine
 10
3.098276161160029
 20
3.763509800892519
 30
0.0
 11
2.650441866408547
 21
4.022067051519628
 31
0.0
  0
LINE
  5
433
330
1F
100
AcDbEntity
  8
VISIBLE
100
AcDbLine
 10
2.791863222645858
 20
3.567224022837495
 30
0.0
 11
2.77602403074728
 21
3.576368784543885
 31
0.0
  0
LINE
  5
434
330
1F
100
AcDbEntity
  8
VISIBLE
100
AcDbLine
 10
2.611032448470417
 20
3.998225351356538
 30
0.0
 11
2.626871640368996
 21
3.989080589650148
 31
0.0
  0
ELLIPSE
  5
435
330
1F
100
AcDbEntity
  8
VISIBLE
100
AcDbEllipse
 10
2.344028927894377
 20
3.834926035170994
 30
0.0
 11
-0.03333333333333321
 21
0.0
 31
0.0
210
0.0
220
0.0
230
1.0
 40
0.5773502691896246
 41
0.0
 42
0.7853981633974383
  0
ELLIPSE
  5
436
330
1F
100
AcDbEntity
  8
VISIBLE
100
AcDbEllipse
 10
2.344028927894377
 20
3.834926035170994
 30
0.0
 11
-0.03333333333333321
 21
0.0
 31
0.0
210
0.0
220
0.0
230
1.0
 40
0.5773502691896246
 41
-0.7853981633974383
 42
0.0
  0
LINE
  5
437
330
1F
100
AcDbEntity
  8
VISIBLE
100
AcDbLine
 10
2.633848427276703
 20
4.003342063263686
 30
0.0
 11
2.626871640368996
 21
3.999314013464442
 31
0.0
  0
LINE
  5
438
330
1F
100
AcDbEntity
  8
VISIBLE
100
AcDbLine
 10
2.626871640368996
 20
3.999314013464442
 30
0.0
 11
2.619894853461289
 21
4.003342063263686
 31
0.0
  0
LINE
  5
439
330
1F
100
AcDbEntity
  8
VISIBLE
100
AcDbLine
 10
3.098276161160029
 20
3.726059824380635
 30
0.0
 11
2.81543344868541
 21
3.562760508195089
 31
0.0
  0
ELLIPSE
  5
43A
330
1F
100
AcDbEntity
  8
VISIBLE
100
AcDbEllipse
 10
2.791863222645858
 20
3.576368784543885
 30
0.0
 11
-0.03333333333333366
 21
-4.440892098500626E-16
 31
0.0
210
0.0
220
0.0
230
1.0
 40
0.577350269189617
 41
0.7853981633974367
 42
2.356194490192316
  0
LINE
  5
43B
330
1F
100
AcDbEntity
  8
VISIBLE
100
AcDbLine
 10
3.074705935120477
 20
3.730523339023039
 30
0.0
 11
3.074705935120477
 21
3.740756762837333
 31
0.0
  0
LINE
  5
43C
330
1F
100
AcDbEntity
  8
VISIBLE
100
AcDbLine
 10
2.344028927894378
 20
3.825781273464603
 30
0.0
 11
2.359868119792956
 21
3.834926035170994
 31
0.0
  0
LINE
  5
43D
330
1F
100
AcDbEntity
  8
VISIBLE
100
AcDbLine
 10
3.058866743221898
 20
3.73966810072943
 30
0.0
 11
3.074705935120477
 21
3.74881286243582
 31
0.0
  0
ELLIPSE
  5
43E
330
1F
100
AcDbEntity
  8
VISIBLE
100
AcDbEllipse
 10
2.626871640368996
 20
3.998225351356538
 30
0.0
 11
0.03333333333333366
 21
0.0
 31
0.0
210
0.0
220
0.0
230
1.0
 40
0.577350269189617
 41
0.7853981633974777
 42
2.356194490192348
  0
LINE
  5
43F
330
1F
100
AcDbEntity
  8
VISIBLE
100
AcDbLine
 10
2.791863222645858
 20
3.577457446651788
 30
0.0
 11
2.784886435738152
 21
3.581485496451032
 31
0.0
  0
LINE
  5
440
330
1F
100
AcDbEntity
  8
VISIBLE
100
AcDbLine
 10
2.603301414329445
 20
4.022067051519628
 30
0.0
 11
2.320458701854826
 21
3.858767735334083
 31
0.0
  0
ELLIPSE
  5
441
330
1F
100
AcDbEntity
  8
VISIBLE
100
AcDbEllipse
 10
2.626871640368996
 20
4.008458775170832
 30
0.0
 11
-0.03333333333333321
 21
0.0
 31
0.0
210
0.0
220
0.0
230
1.0
 40
0.5773502691896246
 41
-2.356194490192355
 42
-0.7853981633974383
  0
LINE
  5
442
330
1F
100
AcDbEntity
  8
VISIBLE
100
AcDbLine
 10
2.328189735995799
 20
3.834926035170994
 30
0.0
 11
2.344028927894378
 21
3.825781273464603
 31
0.0
  0
LINE
  5
443
330
1F
100
AcDbEntity
  8
VISIBLE
100
AcDbLine
 10
2.626871640368996
 20
3.989080589650148
 30
0.0
 11
2.626871640368996
 21
3.999314013464442
 31
0.0
  0
LINE
  5
444
330
1F
100
AcDbEntity
  8
VISIBLE
100
AcDbLine
 10
2.791863222645858
 20
3.585513546250275
 30
0.0
 11
2.807702414544437
 21
3.576368784543885
 31
0.0
  0
LINE
  5
445
330
1F
100
AcDbEntity
  8
VISIBLE
100
AcDbLine
 10
2.650441866408547
 20
4.011833627705334
 30
0.0
 11
3.098276161160029
 21
3.753276377078225
 31
0.0
  0
LINE
  5
446
330
1F
100
AcDbEntity
  8
VISIBLE
100
AcDbLine
 10
2.626871640368996
 20
4.007370113062929
 30
0.0
 11
2.611032448470417
 21
3.998225351356538
 31
0.0
  0
LINE
  5
447
330
1F
100
AcDbEntity
  8
VISIBLE
100
AcDbLine
 10
3.090545127019056
 20
3.73966810072943
 30
0.0
 11
3.074705935120477
 21
3.730523339023039
 31
0.0
  0
ELLIPSE
  5
448
330
1F
100
AcDbEntity
  8
VISIBLE
100
AcDbEllipse
 10
2.344028927894377
 20
3.845159458985288
 30
0.0
 11
-0.03333333333333321
 21
0.0
 31
0.0
210
0.0
220
0.0
230
1.0
 40
0.5773502691896246
 41
-0.7853981633974292
 42
0.0
  0
LINE
  5
449
330
1F
100
AcDbEntity
  8
VISIBLE
100
AcDbLine
 10
3.074705935120477
 20
3.730523339023039
 30
0.0
 11
3.058866743221898
 21
3.73966810072943
 31
0.0
  0
LINE
  5
44A
330
1F
100
AcDbEntity
  8
VISIBLE
100
AcDbLine
 10
2.807702414544437
 20
3.576368784543885
 30
0.0
 11
2.791863222645858
 21
3.567224022837495
 31
0.0
  0
ELLIPSE
  5
44B
330
1F
100
AcDbEntity
  8
VISIBLE
100
AcDbEllipse
 10
3.074705935120477
 20
3.749901524543724
 30
0.0
 11
0.03333333333333366
 21
0.0
 31
0.0
210
0.0
220
0.0
230
1.0
 40
0.5773502691896036
 41
0.0
 42
0.7853981633974471
  0
LINE
  5
44C
330
1F
100
AcDbEntity
  8
VISIBLE
100
AcDbLine
 10
2.351005714802084
 20
3.840042747078141
 30
0.0
 11
2.344028927894377
 21
3.836014697278897
 31
0.0
  0
LINE
  5
44D
330
1F
100
AcDbEntity
  8
VISIBLE
100
AcDbLine
 10
2.344028927894378
 20
3.844070796877384
 30
0.0
 11
2.328189735995799
 21
3.834926035170994
 31
0.0
  0
LINE
  5
44E
330
1F
100
AcDbEntity
  8
VISIBLE
100
AcDbLine
 10
2.77602403074728
 20
3.576368784543885
 30
0.0
 11
2.791863222645858
 21
3.585513546250275
 31
0.0
  0
LINE
  5
44F
330
1F
100
AcDbEntity
  8
VISIBLE
100
AcDbLine
 10
3.074705935120477
 20
3.74881286243582
 30
0.0
 11
3.090545127019056
 21
3.73966810072943
 31
0.0
  0
LINE
  5
450
330
1F
100
AcDbEntity
  8
VISIBLE
100
AcDbLine
 10
2.310695594561044
 20
3.834926035170994
 30
0.0
 11
2.310695594561044
 21
3.845159458985288
 31
0.0
  0
LINE
  5
451
330
1F
100
AcDbEntity
  8
VISIBLE
100
AcDbLine
 10
3.108039268453811
 20
3.73966810072943
 30
0.0
 11
3.108039268453811
 21
3.749901524543724
 31
0.0
  0
LINE
  5
452
330
1F
100
AcDbEntity
  8
TANGENT_EDGES
100
AcDbLine
 10
2.142789887620185
 20
3.903248522565562
 30
0.0
 11
2.141399244283851
 21
3.904051410870141
 31
0.0
  0
LINE
  5
453
330
1F
100
AcDbEntity
  8
TANGENT_EDGES
100
AcDbLine
 10
2.540183898647032
 20
4.140712944852044
 30
0.0
 11
2.540183898647032
 21
4.139107168242885
 31
0.0
  0
LINE
  5
454
330
1F
100
AcDbEntity
  8
TANGENT_EDGES
100
AcDbLine
 10
2.141399244283851
 20
3.904051410870143
 30
0.0
 11
2.141399244283851
 21
3.905657187479301
 31
0.0
  0
LINE
  5
455
330
1F
100
AcDbEntity
  8
TANGENT_EDGES
100
AcDbLine
 10
2.88166933350805
 20
3.4734447223652
 30
0.0
 11
2.738656753388773
 21
3.556013073994568
 31
0.0
  0
LINE
  5
456
330
1F
100
AcDbEntity
  8
TANGENT_EDGES
100
AcDbLine
 10
2.538656753388771
 20
3.671483127832496
 30
0.0
 11
2.142789887620185
 21
3.900036969347247
 31
0.0
  0
LINE
  5
457
330
1F
100
AcDbEntity
  8
TANGENT_EDGES
100
AcDbLine
 10
2.195728615296855
 20
3.934656066270759
 30
0.0
 11
2.198509901969522
 21
3.936261842879917
 31
0.0
  0
LINE
  5
458
330
1F
100
AcDbEntity
  8
TANGENT_EDGES
100
AcDbLine
 10
2.548527758665033
 20
4.142318721461202
 30
0.0
 11
2.548527758665033
 21
4.145530274679519
 31
0.0
  0
LINE
  5
459
330
1F
100
AcDbEntity
  8
TANGENT_EDGES
100
AcDbLine
 10
2.138617957611184
 20
3.907262964088457
 30
0.0
 11
2.138617957611185
 21
4.541136476415352
 31
0.0
  0
ELLIPSE
  5
45A
330
1F
100
AcDbEntity
  8
TANGENT_EDGES
100
AcDbEllipse
 10
3.193587328101837
 20
4.210249003522533
 30
0.0
 11
0.004100000000000215
 21
-0.007101408311032564
 31
0.0
210
0.0
220
0.0
230
0.9999999999999999
 40
0.5773502691896161
 41
0.0
 42
6.283185307179586
  0
ELLIPSE
  5
45B
330
1F
100
AcDbEntity
  8
TANGENT_EDGES
100
AcDbEllipse
 10
3.263277364076556
 20
4.308686622472154
 30
0.0
 11
0.00409999999999977
 21
-0.007101408311031676
 31
0.0
210
0.0
220
0.0
230
1.0
 40
0.5773502691896859
 41
0.0
 42
6.283185307179586
  0
ELLIPSE
  5
45C
330
1F
100
AcDbEntity
  8
TANGENT_EDGES
100
AcDbEllipse
 10
3.124496128546243
 20
4.389119440497959
 30
0.0
 11
0.00409999999999977
 21
-0.007101408311032564
 31
0.0
210
0.0
220
0.0
230
1.0
 40
0.5773502691895378
 41
0.0
 42
6.283185307179586
  0
LINE
  5
45D
330
1F
100
AcDbEntity
  8
TANGENT_EDGES
100
AcDbLine
 10
2.550319095844033
 20
4.140141397245385
 30
0.0
 11
3.301785042437021
 21
3.706282330693091
 31
0.0
  0
LINE
  5
45E
330
1F
100
AcDbEntity
  8
TANGENT_EDGES
100
AcDbLine
 10
2.546147165835033
 20
4.792562990235684
 30
0.0
 11
2.546147165835032
 21
4.147367391986595
 31
0.0
  0
LINE
  5
45F
330
1F
100
AcDbEntity
  8
TANGENT_EDGES
100
AcDbLine
 10
2.554491025853034
 20
4.792562990235684
 30
0.0
 11
3.305956972446022
 21
4.35870392368339
 31
0.0
  0
LINE
  5
460
330
1F
100
AcDbEntity
  8
TANGENT_EDGES
100
AcDbLine
 10
3.305956972446022
 20
3.713508325434302
 30
0.0
 11
2.554491025853034
 21
4.147367391986595
 31
0.0
  0
LINE
  5
461
330
1F
100
AcDbEntity
  8
TANGENT_EDGES
100
AcDbLine
 10
2.554491025853034
 20
4.147367391986595
 30
0.0
 11
2.554491025853034
 21
4.792562990235684
 31
0.0
  0
LINE
  5
462
330
1F
100
AcDbEntity
  8
TANGENT_EDGES
100
AcDbLine
 10
3.306286955610577
 20
4.348252767447514
 30
0.0
 11
3.306286955610576
 21
3.714107089593649
 31
0.0
  0
LINE
  5
463
330
1F
100
AcDbEntity
  8
TANGENT_EDGES
100
AcDbLine
 10
2.612304883759692
 20
2.181560070727114
 30
0.0
 11
2.612304883759692
 21
2.195168347075909
 31
0.0
  0
LINE
  5
464
330
1F
100
AcDbEntity
  8
TANGENT_EDGES
100
AcDbLine
 10
2.547612136697046
 20
2.166737931315944
 30
0.0
 11
2.547612136697046
 21
2.153129654967148
 31
0.0
  0
LINE
  5
465
330
1F
100
AcDbEntity
  8
TANGENT_EDGES
100
AcDbLine
 10
2.356253436839723
 20
2.048100771571454
 30
0.0
 11
2.356253436839723
 21
2.034492495222659
 31
0.0
  0
LINE
  5
466
330
1F
100
AcDbEntity
  8
TANGENT_EDGES
100
AcDbLine
 10
2.405830810457791
 20
2.07169509893306
 30
0.0
 11
2.405830810457791
 21
2.085303375281855
 31
0.0
  0
LINE
  5
467
330
1F
100
AcDbEntity
  8
TANGENT_EDGES
100
AcDbLine
 10
3.098276161160029
 20
3.763509800892519
 30
0.0
 11
3.098276161160029
 21
3.753276377078225
 31
0.0
  0
LINE
  5
468
330
1F
100
AcDbEntity
  8
TANGENT_EDGES
100
AcDbLine
 10
2.650441866408547
 20
4.011833627705334
 30
0.0
 11
2.650441866408547
 21
4.022067051519628
 31
0.0
  0
LINE
  5
469
330
1F
100
AcDbEntity
  8
TANGENT_EDGES
100
AcDbLine
 10
2.603301414329445
 20
4.022067051519628
 30
0.0
 11
2.603301414329445
 21
4.011833627705333
 31
0.0
  0
LINE
  5
46A
330
1F
100
AcDbEntity
  8
TANGENT_EDGES
100
AcDbLine
 10
2.320458701854826
 20
3.848534311519789
 30
0.0
 11
2.320458701854826
 21
3.858767735334083
 31
0.0
  0
LINE
  5
46B
330
1F
100
AcDbEntity
  8
VISIBLE
100
AcDbLine
 10
8.6905208220876
 20
3.928387109562087
 30
0.0
 11
8.586811827513571
 21
3.988263525496788
 31
0.0
  0
ELLIPSE
  5
46C
330
1F
100
AcDbEntity
  8
VISIBLE
100
AcDbEllipse
 10
8.762315730604074
 20
3.614770772827744
 30
0.0
 11
0.001966666666666228
 21
0.0
 31
0.0
210
0.0
220
0.0
230
1.0
 40
0.5773502691897748
 41
0.0
 42
0.785398163397108
  0
ELLIPSE
  5
46D
330
1F
100
AcDbEntity
  8
VISIBLE
100
AcDbEllipse
 10
8.762315730604074
 20
3.614770772827744
 30
0.0
 11
0.001966666666666228
 21
0.0
 31
0.0
210
0.0
220
0.0
230
1.0
 40
0.5773502691897748
 41
5.497787143782754
 42
6.283185307179586
  0
LINE
  5
46E
330
1F
100
AcDbEntity
  8
VISIBLE
100
AcDbLine
 10
8.690520822087597
 20
3.849459106739073
 30
0.0
 11
8.688163799483643
 21
3.848098279104193
 31
0.0
  0
LINE
  5
46F
330
1F
100
AcDbEntity
  8
VISIBLE
100
AcDbLine
 10
8.55145648845424
 20
4.011397595289741
 30
0.0
 11
8.549099465850286
 21
4.010036767654861
 31
0.0
  0
LINE
  5
470
330
1F
100
AcDbEntity
  8
VISIBLE
100
AcDbLine
 10
8.447747493880213
 20
3.905253039769136
 30
0.0
 11
8.447747493880213
 21
3.907974695038895
 31
0.0
  0
LINE
  5
471
330
1F
100
AcDbEntity
  8
VISIBLE
100
AcDbLine
 10
8.58681182751357
 20
3.827685864581
 30
0.0
 11
8.690520822087597
 21
3.7678094486463
 31
0.0
  0
LINE
  5
472
330
1F
100
AcDbEntity
  8
VISIBLE
100
AcDbLine
 10
8.586811827513571
 20
3.988263525496788
 30
0.0
 11
8.586811827513571
 21
3.990985180766547
 31
0.0
  0
ELLIPSE
  5
473
330
1F
100
AcDbEntity
  8
VISIBLE
100
AcDbEllipse
 10
8.71522241897705
 20
3.647947750566108
 30
0.0
 11
0.004166666666668205
 21
0.007216878364870281
 31
0.0
210
0.0
220
0.0
230
1.0
 40
0.5773502691895761
 41
2.043591686856618
 42
2.356141858613602
  0
ELLIPSE
  5
474
330
1F
100
AcDbEntity
  8
VISIBLE
100
AcDbEllipse
 10
8.360749789568239
 20
3.846614976982179
 30
0.0
 11
0.0009833333333375547
 21
-0.001703183294114119
 31
0.0
210
0.0
220
0.0
230
1.0
 40
0.5773502691925322
 41
-2.356194490191559
 42
-0.7853981633956915
  0
LINE
  5
475
330
1F
100
AcDbEntity
  8
VISIBLE
100
AcDbLine
 10
8.023436284716205
 20
3.183361196018233
 30
0.0
 11
7.657484955226132
 21
3.39464329460963
 31
0.0
  0
LINE
  5
476
330
1F
100
AcDbEntity
  8
VISIBLE
100
AcDbLine
 10
7.652968066254151
 20
4.034336187218719
 30
0.0
 11
7.674871187615707
 21
4.021690414204532
 31
0.0
  0
LINE
  5
477
330
1F
100
AcDbEntity
  8
VISIBLE
100
AcDbLine
 10
8.70654853981262
 20
3.645362198833983
 30
0.0
 11
8.706548575802657
 21
3.646151816205315
 31
0.0
  0
LINE
  5
478
330
1F
100
AcDbEntity
  8
VISIBLE
100
AcDbLine
 10
8.586811827513571
 20
3.990985180766547
 30
0.0
 11
8.690520822087597
 21
3.931108764831847
 31
0.0
  0
LINE
  5
479
330
1F
100
AcDbEntity
  8
VISIBLE
100
AcDbLine
 10
8.690520822087597
 20
3.7678094486463
 30
0.0
 11
8.688163799483643
 21
3.766448621011421
 31
0.0
  0
LINE
  5
47A
330
1F
100
AcDbEntity
  8
VISIBLE
100
AcDbLine
 10
8.362140432904564
 20
3.847417865286753
 30
0.0
 11
8.763706373940408
 21
3.615573661132323
 31
0.0
  0
LINE
  5
47B
330
1F
100
AcDbEntity
  8
VISIBLE
100
AcDbLine
 10
8.359359146231897
 20
3.847417865286753
 30
0.0
 11
8.357355677018532
 21
3.848574568776403
 31
0.0
  0
ELLIPSE
  5
47C
330
1F
100
AcDbEntity
  8
VISIBLE
100
AcDbEllipse
 10
8.360749789568231
 20
3.846614976982174
 30
0.0
 11
-0.00590000000000046
 21
4.440892098500626E-16
 31
0.0
210
0.0
220
0.0
230
1.0
 40
0.5773502691896011
 41
-2.356194490192235
 42
-1.405947204135702
  0
LINE
  5
47D
330
1F
100
AcDbEntity
  8
VISIBLE
100
AcDbLine
 10
8.766487660613075
 20
3.617179437741481
 30
0.0
 11
8.364921719577232
 21
3.849023641895911
 31
0.0
  0
LINE
  5
47E
330
1F
100
AcDbEntity
  8
VISIBLE
100
AcDbLine
 10
8.766487660613075
 20
3.612362107914008
 30
0.0
 11
8.763706373940408
 21
3.613967884523166
 31
0.0
  0
ELLIPSE
  5
47F
330
1F
100
AcDbEntity
  8
VISIBLE
100
AcDbEllipse
 10
7.831386082945942
 20
3.462303644615846
 30
0.0
 11
-0.01041666666666696
 21
4.440892098500626E-16
 31
0.0
210
0.0
220
0.0
230
1.0
 40
0.5773502691896062
 41
1.548942318923985
 42
2.582942716714608
  0
ELLIPSE
  5
480
330
1F
100
AcDbEntity
  8
VISIBLE
100
AcDbEllipse
 10
8.384320015607784
 20
3.751357042540607
 30
0.0
 11
-0.02583333333333293
 21
0.0
 31
0.0
210
0.0
220
0.0
230
1.0
 40
0.5773502691896385
 41
0.0
 42
0.7853981633974315
  0
ELLIPSE
  5
481
330
1F
100
AcDbEntity
  8
VISIBLE
100
AcDbEllipse
 10
8.384320015607784
 20
3.751357042540607
 30
0.0
 11
-0.02583333333333293
 21
0.0
 31
0.0
210
0.0
220
0.0
230
1.0
 40
0.5773502691896385
 41
3.141592653589764
 42
6.283185307179586
  0
ELLIPSE
  5
482
330
1F
100
AcDbEntity
  8
VISIBLE
100
AcDbEllipse
 10
8.384320015607784
 20
3.751357042540607
 30
0.0
 11
-0.02583333333333293
 21
0.0
 31
0.0
210
0.0
220
0.0
230
1.0
 40
0.5773502691896385
 41
0.7853981633974315
 42
3.141592653589764
  0
LINE
  5
483
330
1F
100
AcDbEntity
  8
VISIBLE
100
AcDbLine
 10
8.58681182751357
 20
3.824964209311241
 30
0.0
 11
8.58681182751357
 21
3.827685864581
 31
0.0
  0
ELLIPSE
  5
484
330
1F
100
AcDbEntity
  8
VISIBLE
100
AcDbEllipse
 10
8.279220377697426
 20
3.720860895242959
 30
0.0
 11
-0.01041666666666607
 21
0.0
 31
0.0
210
0.0
220
0.0
230
1.0
 40
0.5773502691896555
 41
1.548942318924557
 42
2.582942716715313
  0
LINE
  5
485
330
1F
100
AcDbEntity
  8
VISIBLE
100
AcDbLine
 10
8.58681182751357
 20
3.906613867404015
 30
0.0
 11
8.58681182751357
 21
3.909335522673774
 31
0.0
  0
ELLIPSE
  5
486
330
1F
100
AcDbEntity
  8
VISIBLE
100
AcDbEllipse
 10
8.11420522519452
 20
3.302202273372265
 30
0.0
 11
-0.01041666666666785
 21
0.0
 31
0.0
210
0.0
220
0.0
230
1.0
 40
0.5773502691895996
 41
1.605026317321719
 42
2.206041079506856
  0
ELLIPSE
  5
487
330
1F
100
AcDbEntity
  8
VISIBLE
100
AcDbEllipse
 10
8.712441132304383
 20
3.649553527175266
 30
0.0
 11
0.00416666666666643
 21
0.007216878364870283
 31
0.0
210
0.0
220
0.0
230
1.0
 40
0.577350269189611
 41
2.043591686856492
 42
2.35614185861342
  0
LINE
  5
488
330
1F
100
AcDbEntity
  8
VISIBLE
100
AcDbLine
 10
8.709329862475323
 20
3.644546039596157
 30
0.0
 11
8.709329826485286
 21
3.643756422224825
 31
0.0
  0
LINE
  5
489
330
1F
100
AcDbEntity
  8
VISIBLE
100
AcDbLine
 10
8.447747493880215
 20
4.071274011224441
 30
0.0
 11
8.551456488454242
 21
4.011397595289741
 31
0.0
  0
ELLIPSE
  5
48A
330
1F
100
AcDbEntity
  8
VISIBLE
100
AcDbEllipse
 10
8.562039519946003
 20
3.560759523999376
 30
0.0
 11
-0.01041666666666607
 21
0.0
 31
0.0
210
0.0
220
0.0
230
1.0
 40
0.5773502691896555
 41
1.605026317320191
 42
2.206041079507802
  0
ELLIPSE
  5
48B
330
1F
100
AcDbEntity
  8
VISIBLE
100
AcDbEllipse
 10
8.562039519946003
 20
3.557547970781061
 30
0.0
 11
-0.01041666666666607
 21
0.0
 31
0.0
210
0.0
220
0.0
230
1.0
 40
0.5773502691896981
 41
1.553558917104631
 42
2.586228031280684
  0
ELLIPSE
  5
48C
330
1F
100
AcDbEntity
  8
VISIBLE
100
AcDbEllipse
 10
8.279220377697426
 20
3.724072448461274
 30
0.0
 11
-0.01041666666666607
 21
0.0
 31
0.0
210
0.0
220
0.0
230
1.0
 40
0.5773502691896555
 41
1.605026317320362
 42
2.20280386542297
  0
ELLIPSE
  5
48D
330
1F
100
AcDbEntity
  8
VISIBLE
100
AcDbEllipse
 10
8.360749789568231
 20
3.846614976982178
 30
0.0
 11
0.001966666666664452
 21
-8.881784197001252E-16
 31
0.0
210
0.0
220
0.0
230
1.0
 40
0.5773502691878125
 41
-5.497787143783301
 42
-3.926990816985037
  0
LINE
  5
48E
330
1F
100
AcDbEntity
  8
VISIBLE
100
AcDbLine
 10
8.447747493880213
 20
3.986902697861909
 30
0.0
 11
8.447747493880213
 21
3.989624353131668
 31
0.0
  0
ELLIPSE
  5
48F
330
1F
100
AcDbEntity
  8
VISIBLE
100
AcDbEllipse
 10
8.762315730604074
 20
3.614770772827744
 30
0.0
 11
0.00590000000000046
 21
0.0
 31
0.0
210
0.0
220
0.0
230
1.0
 40
0.5773502691896764
 41
0.0
 42
0.7853981633974062
  0
ELLIPSE
  5
490
330
1F
100
AcDbEntity
  8
VISIBLE
100
AcDbEllipse
 10
8.762315730604074
 20
3.614770772827744
 30
0.0
 11
0.00590000000000046
 21
0.0
 31
0.0
210
0.0
220
0.0
230
1.0
 40
0.5773502691896764
 41
5.497787143782272
 42
6.283185307179586
  0
LINE
  5
491
330
1F
100
AcDbEntity
  8
VISIBLE
100
AcDbLine
 10
8.690520822087597
 20
3.849459106739073
 30
0.0
 11
8.690520822087597
 21
3.846737451469314
 31
0.0
  0
ELLIPSE
  5
492
330
1F
100
AcDbEntity
  8
VISIBLE
100
AcDbEllipse
 10
8.712441132304383
 20
3.63594525082647
 30
0.0
 11
0.006249999999999645
 21
0.01082531754730587
 31
0.0
210
0.0
220
0.0
230
1.0
 40
0.5773502691895754
 41
-1.140960469871638
 42
-0.8773068711479238
  0
LINE
  5
493
330
1F
100
AcDbEntity
  8
VISIBLE
100
AcDbLine
 10
8.55145648845424
 20
3.929747937196967
 30
0.0
 11
8.549099465850286
 21
3.928387109562088
 31
0.0
  0
LINE
  5
494
330
1F
100
AcDbEntity
  8
VISIBLE
100
AcDbLine
 10
8.366262783799721
 20
4.482122890432953
 30
0.0
 11
8.766487660613079
 21
4.251052950068376
 31
0.0
  0
LINE
  5
495
330
1F
100
AcDbEntity
  8
VISIBLE
100
AcDbLine
 10
8.55145648845424
 20
3.845376623834436
 30
0.0
 11
8.447747493880213
 21
3.905253039769136
 31
0.0
  0
LINE
  5
496
330
1F
100
AcDbEntity
  8
VISIBLE
100
AcDbLine
 10
8.551456488454242
 20
4.011397595289741
 30
0.0
 11
8.551456488454242
 21
4.008675940019982
 31
0.0
  0
ELLIPSE
  5
497
330
1F
100
AcDbEntity
  8
VISIBLE
100
AcDbEllipse
 10
8.762315730604074
 20
3.614770772827744
 30
0.0
 11
0.00295000000000023
 21
-0.005109549882328146
 31
0.0
210
0.0
220
0.0
230
1.0
 40
0.5773502691896757
 41
0.0
 42
0.7853981633973603
  0
ELLIPSE
  5
498
330
1F
100
AcDbEntity
  8
VISIBLE
100
AcDbEllipse
 10
8.762315730604074
 20
3.614770772827744
 30
0.0
 11
0.00295000000000023
 21
-0.005109549882328146
 31
0.0
210
0.0
220
0.0
230
1.0
 40
0.5773502691896757
 41
-0.7853981633974484
 42
0.0
  0
LINE
  5
499
330
1F
100
AcDbEntity
  8
VISIBLE
100
AcDbLine
 10
8.690520822087597
 20
3.765087793376541
 30
0.0
 11
8.58681182751357
 21
3.824964209311241
 31
0.0
  0
LINE
  5
49A
330
1F
100
AcDbEntity
  8
VISIBLE
100
AcDbLine
 10
8.55145648845424
 20
3.848098279104195
 30
0.0
 11
8.55145648845424
 21
3.845376623834436
 31
0.0
  0
LINE
  5
49B
330
1F
100
AcDbEntity
  8
VISIBLE
100
AcDbLine
 10
8.447747493880213
 20
3.989624353131668
 30
0.0
 11
8.551456488454242
 21
3.929747937196968
 31
0.0
  0
ELLIPSE
  5
49C
330
1F
100
AcDbEntity
  8
VISIBLE
100
AcDbEllipse
 10
8.762315730604076
 20
4.24864428515464
 30
0.0
 11
0.00590000000000046
 21
0.0
 31
0.0
210
0.0
220
0.0
230
1.0
 40
0.5773502691896764
 41
6.283185307179586
 42
7.068583470576687
  0
LINE
  5
49D
330
1F
100
AcDbEntity
  8
VISIBLE
100
AcDbLine
 10
8.55145648845424
 20
3.848098279104194
 30
0.0
 11
8.549099465850286
 21
3.846737451469315
 31
0.0
  0
LINE
  5
49E
330
1F
100
AcDbEntity
  8
VISIBLE
100
AcDbLine
 10
8.447747493880215
 20
4.068552355954682
 30
0.0
 11
8.447747493880215
 21
4.071274011224441
 31
0.0
  0
LINE
  5
49F
330
1F
100
AcDbEntity
  8
VISIBLE
100
AcDbLine
 10
8.551456488454242
 20
4.008675940019982
 30
0.0
 11
8.447747493880215
 21
4.068552355954682
 31
0.0
  0
ELLIPSE
  5
4A0
330
1F
100
AcDbEntity
  8
VISIBLE
100
AcDbEllipse
 10
7.831386082945942
 20
3.465515197834162
 30
0.0
 11
-0.01041666666666696
 21
0.0
 31
0.0
210
0.0
220
0.0
230
1.0
 40
0.5773502691896062
 41
1.605026317321893
 42
2.202803865422185
  0
LINE
  5
4A1
330
1F
100
AcDbEntity
  8
VISIBLE
100
AcDbLine
 10
8.690520822087597
 20
3.7678094486463
 30
0.0
 11
8.690520822087597
 21
3.765087793376541
 31
0.0
  0
LINE
  5
4A2
330
1F
100
AcDbEntity
  8
VISIBLE
100
AcDbLine
 10
8.690520822087597
 20
3.931108764831847
 30
0.0
 11
8.6905208220876
 21
3.928387109562087
 31
0.0
  0
LINE
  5
4A3
330
1F
100
AcDbEntity
  8
VISIBLE
100
AcDbLine
 10
8.690520822087597
 20
3.846737451469314
 30
0.0
 11
8.58681182751357
 21
3.906613867404015
 31
0.0
  0
LINE
  5
4A4
330
1F
100
AcDbEntity
  8
VISIBLE
100
AcDbLine
 10
8.447747493880213
 20
3.907974695038895
 30
0.0
 11
8.55145648845424
 21
3.848098279104195
 31
0.0
  0
LINE
  5
4A5
330
1F
100
AcDbEntity
  8
VISIBLE
100
AcDbLine
 10
8.551456488454242
 20
3.927026281927208
 30
0.0
 11
8.447747493880213
 21
3.986902697861909
 31
0.0
  0
LINE
  5
4A6
330
1F
100
AcDbEntity
  8
VISIBLE
100
AcDbLine
 10
7.676405730321403
 20
4.024015998778625
 30
0.0
 11
7.654214810221117
 21
4.03682793247209
 31
0.0
  0
ELLIPSE
  5
4A7
330
1F
100
AcDbEntity
  8
VISIBLE
100
AcDbEllipse
 10
8.384320015607784
 20
3.754568595758923
 30
0.0
 11
-0.02583333333333471
 21
0.0
 31
0.0
210
0.0
220
0.0
230
1.0
 40
0.5773502691895988
 41
0.7853981633974658
 42
3.033720860178895
  0
ELLIPSE
  5
4A8
330
1F
100
AcDbEntity
  8
VISIBLE
100
AcDbEllipse
 10
8.384320015607784
 20
3.754568595758923
 30
0.0
 11
-0.02583333333333471
 21
0.0
 31
0.0
210
0.0
220
0.0
230
1.0
 40
0.5773502691895988
 41
0.1078717934108397
 42
0.7853981633974658
  0
LINE
  5
4A9
330
1F
100
AcDbEntity
  8
VISIBLE
100
AcDbLine
 10
8.389317420725368
 20
3.825304117616021
 30
0.0
 11
8.762315730604074
 21
3.609953443000271
 31
0.0
  0
LINE
  5
4AA
330
1F
100
AcDbEntity
  8
VISIBLE
100
AcDbLine
 10
8.359359146231899
 20
3.847417865286755
 30
0.0
 11
8.357355677018534
 21
3.848574568776404
 31
0.0
  0
LINE
  5
4AB
330
1F
100
AcDbEntity
  8
VISIBLE
100
AcDbLine
 10
8.58681182751357
 20
3.909335522673774
 30
0.0
 11
8.690520822087597
 21
3.849459106739073
 31
0.0
  0
ELLIPSE
  5
4AC
330
1F
100
AcDbEntity
  8
VISIBLE
100
AcDbEllipse
 10
8.762315730604074
 20
3.614770772827744
 30
0.0
 11
0.0009833333333340022
 21
-0.001703183294109234
 31
0.0
210
0.0
220
0.0
230
0.9999999999999999
 40
0.5773502691900377
 41
0.0
 42
0.7853981633971924
  0
ELLIPSE
  5
4AD
330
1F
100
AcDbEntity
  8
VISIBLE
100
AcDbEllipse
 10
8.762315730604074
 20
3.614770772827744
 30
0.0
 11
0.0009833333333340022
 21
-0.001703183294109234
 31
0.0
210
0.0
220
0.0
230
0.9999999999999999
 40
0.5773502691900377
 41
-0.7853981633974785
 42
0.0
  0
LINE
  5
4AE
330
1F
100
AcDbEntity
  8
VISIBLE
100
AcDbLine
 10
8.690520822087597
 20
3.931108764831846
 30
0.0
 11
8.688163799483643
 21
3.929747937196967
 31
0.0
  0
LINE
  5
4AF
330
1F
100
AcDbEntity
  8
VISIBLE
100
AcDbLine
 10
8.762315730604074
 20
3.613164996218586
 30
0.0
 11
8.360749789568233
 21
3.845009200373018
 31
0.0
  0
ELLIPSE
  5
4B0
330
1F
100
AcDbEntity
  8
VISIBLE
100
AcDbEllipse
 10
8.11420522519452
 20
3.298990720153949
 30
0.0
 11
-0.01041666666666785
 21
0.0
 31
0.0
210
0.0
220
0.0
230
1.0
 40
0.5773502691895996
 41
1.553558917103952
 42
2.586228031279801
  0
ELLIPSE
  5
4B1
330
1F
100
AcDbEntity
  8
VISIBLE
100
AcDbEllipse
 10
8.023436284716205
 20
3.188178525845707
 30
0.0
 11
0.00295000000000023
 21
-0.005109549882328146
 31
0.0
210
0.0
220
0.0
230
1.0
 40
0.5773502691896757
 41
-0.7853981633974484
 42
0.0
  0
ELLIPSE
  5
4B2
330
1F
100
AcDbEntity
  8
VISIBLE
100
AcDbEllipse
 10
8.360749789568233
 20
3.846614976982176
 30
0.0
 11
0.00295000000000023
 21
-0.005109549882328146
 31
0.0
210
0.0
220
0.0
230
1.0
 40
0.5773502691896757
 41
-2.183734575517156
 42
-1.998321809939186
  0
LINE
  5
4B3
330
1F
100
AcDbEntity
  8
VISIBLE
100
AcDbLine
 10
8.551456488454242
 20
3.929747937196968
 30
0.0
 11
8.551456488454242
 21
3.927026281927208
 31
0.0
  0
LINE
  5
4B4
330
1F
100
AcDbEntity
  8
VISIBLE
100
AcDbLine
 10
7.660144696721535
 20
4.045184812704736
 30
0.0
 11
7.674435641795625
 21
4.053435693690236
 31
0.0
  0
LINE
  5
4B5
330
1F
100
AcDbEntity
  8
VISIBLE
100
AcDbLine
 10
8.765265730604074
 20
3.609661222945415
 30
0.0
 11
8.37169339011308
 21
3.382432126217353
 31
0.0
  0
LINE
  5
4B6
330
1F
100
AcDbEntity
  8
VISIBLE
100
AcDbLine
 10
8.171693390113083
 20
3.266962072379429
 30
0.0
 11
8.02638628471621
 21
3.183068975963381
 31
0.0
  0
LINE
  5
4B7
330
1F
100
AcDbEntity
  8
VISIBLE
100
AcDbLine
 10
8.768215730604076
 20
4.248644285154636
 30
0.0
 11
8.768215730604075
 21
3.614770772827744
 31
0.0
  0
ELLIPSE
  5
4B8
330
1F
100
AcDbEntity
  8
VISIBLE
100
AcDbEllipse
 10
8.207119056242433
 20
4.294754152481736
 30
0.0
 11
0.06666666666666643
 21
0.1154700538379254
 31
0.0
210
0.0
220
0.0
230
1.0
 40
0.577350269189623
 41
3.141592653589793
 42
5.498613295779671
  0
ELLIPSE
  5
4B9
330
1F
100
AcDbEntity
  8
VISIBLE
100
AcDbEllipse
 10
8.207119056242433
 20
4.294754152481736
 30
0.0
 11
0.06666666666666643
 21
0.1154700538379254
 31
0.0
210
0.0
220
0.0
230
1.0
 40
0.577350269189623
 41
-0.7845720113999155
 42
0.0
  0
ELLIPSE
  5
4BA
330
1F
100
AcDbEntity
  8
VISIBLE
100
AcDbEllipse
 10
8.21890416926221
 20
4.287950014307339
 30
0.0
 11
0.06666666666666643
 21
0.1154700538379254
 31
0.0
210
0.0
220
0.0
230
1.0
 40
0.577350269189623
 41
-0.7845720113999236
 42
0.0
  0
ELLIPSE
  5
4BB
330
1F
100
AcDbEntity
  8
VISIBLE
100
AcDbEllipse
 10
8.21890416926221
 20
4.287950014307339
 30
0.0
 11
0.06666666666666643
 21
0.1154700538379254
 31
0.0
210
0.0
220
0.0
230
1.0
 40
0.577350269189623
 41
3.141592653589799
 42
5.498613295779663
  0
LINE
  5
4BC
330
1F
100
AcDbEntity
  8
VISIBLE
100
AcDbLine
 10
8.2737857229091
 20
4.410224206319662
 30
0.0
 11
8.285570835928876
 21
4.403420068145264
 31
0.0
  0
LINE
  5
4BD
330
1F
100
AcDbEntity
  8
VISIBLE
100
AcDbLine
 10
8.140452389575767
 20
4.179284098643811
 30
0.0
 11
8.152237502595543
 21
4.172479960469413
 31
0.0
  0
ELLIPSE
  5
4BE
330
1F
100
AcDbEntity
  8
VISIBLE
100
AcDbEllipse
 10
8.203361013488504
 20
4.204131005909931
 30
0.0
 11
0.003149999999999764
 21
0.00545596004384219
 31
0.0
210
0.0
220
0.0
230
0.9999999999999999
 40
0.5773502691895922
 41
0.0
 42
0.2595949015197377
  0
ELLIPSE
  5
4BF
330
1F
100
AcDbEntity
  8
VISIBLE
100
AcDbEllipse
 10
8.203361013488504
 20
4.204131005909931
 30
0.0
 11
0.003149999999999764
 21
0.00545596004384219
 31
0.0
210
0.0
220
0.0
230
0.9999999999999999
 40
0.5773502691895922
 41
3.141592653589671
 42
6.283185307179586
  0
ELLIPSE
  5
4C0
330
1F
100
AcDbEntity
  8
VISIBLE
100
AcDbEllipse
 10
8.203361013488504
 20
4.204131005909931
 30
0.0
 11
0.003149999999999764
 21
0.00545596004384219
 31
0.0
210
0.0
220
0.0
230
0.9999999999999999
 40
0.5773502691895922
 41
0.2595949015197377
 42
3.141592653589671
  0
ELLIPSE
  5
4C1
330
1F
100
AcDbEntity
  8
VISIBLE
100
AcDbEllipse
 10
8.207119056242433
 20
4.294754152481738
 30
0.0
 11
0.04475500077188954
 21
0.07751793522969752
 31
0.0
210
0.0
220
0.0
230
1.0
 40
0.5773502691896238
 41
0.2595949015196054
 42
3.102083617512345
  0
ELLIPSE
  5
4C2
330
1F
100
AcDbEntity
  8
VISIBLE
100
AcDbEllipse
 10
8.207119056242433
 20
4.294754152481738
 30
0.0
 11
0.04475500077188954
 21
0.07751793522969752
 31
0.0
210
0.0
220
0.0
230
1.0
 40
0.5773502691896238
 41
0.0395090360774592
 42
0.2595949015196054
  0
ELLIPSE
  5
4C3
330
1F
100
AcDbEntity
  8
VISIBLE
100
AcDbEllipse
 10
8.27305104946322
 20
4.383039746919229
 30
0.0
 11
0.003150000000001541
 21
0.005455960043841301
 31
0.0
210
0.0
220
0.0
230
1.0
 40
0.5773502691896518
 41
0.0
 42
0.2595949015197014
  0
ELLIPSE
  5
4C4
330
1F
100
AcDbEntity
  8
VISIBLE
100
AcDbEllipse
 10
8.27305104946322
 20
4.383039746919229
 30
0.0
 11
0.003150000000001541
 21
0.005455960043841301
 31
0.0
210
0.0
220
0.0
230
1.0
 40
0.5773502691896518
 41
3.141592653590461
 42
6.283185307179586
  0
ELLIPSE
  5
4C5
330
1F
100
AcDbEntity
  8
VISIBLE
100
AcDbEllipse
 10
8.27305104946322
 20
4.383039746919229
 30
0.0
 11
0.003150000000001541
 21
0.005455960043841301
 31
0.0
210
0.0
220
0.0
230
1.0
 40
0.5773502691896518
 41
0.2595949015197014
 42
3.141592653590461
  0
ELLIPSE
  5
4C6
330
1F
100
AcDbEntity
  8
VISIBLE
100
AcDbEllipse
 10
8.207119056242433
 20
4.294754152481738
 30
0.0
 11
0.06666666666666643
 21
0.1154700538379254
 31
0.0
210
0.0
220
0.0
230
1.0
 40
0.577350269189623
 41
3.141592653589793
 42
6.283185307179586
  0
ELLIPSE
  5
4C7
330
1F
100
AcDbEntity
  8
VISIBLE
100
AcDbEllipse
 10
8.203583522336501
 20
4.296795393934057
 30
0.0
 11
0.04475500077188954
 21
0.07751793522969752
 31
0.0
210
0.0
220
0.0
230
1.0
 40
0.5773502691896188
 41
0.2595949015196075
 42
3.141592653589801
  0
ELLIPSE
  5
4C8
330
1F
100
AcDbEntity
  8
VISIBLE
100
AcDbEllipse
 10
8.203583522336501
 20
4.296795393934057
 30
0.0
 11
0.04475500077188954
 21
0.07751793522969752
 31
0.0
210
0.0
220
0.0
230
1.0
 40
0.5773502691896188
 41
3.141592653589801
 42
6.283185307179586
  0
ELLIPSE
  5
4C9
330
1F
100
AcDbEntity
  8
VISIBLE
100
AcDbEllipse
 10
8.203583522336501
 20
4.296795393934057
 30
0.0
 11
0.04475500077188954
 21
0.07751793522969752
 31
0.0
210
0.0
220
0.0
230
1.0
 40
0.5773502691896188
 41
0.0
 42
0.2595949015196075
  0
ELLIPSE
  5
4CA
330
1F
100
AcDbEntity
  8
VISIBLE
100
AcDbEllipse
 10
8.203583522336501
 20
4.296795393934057
 30
0.0
 11
0.06666666666666465
 21
0.1154700538379254
 31
0.0
210
0.0
220
0.0
230
1.0
 40
0.5773502691896235
 41
0.0
 42
0.2595949015195845
  0
ELLIPSE
  5
4CB
330
1F
100
AcDbEntity
  8
VISIBLE
100
AcDbEllipse
 10
8.203583522336501
 20
4.296795393934057
 30
0.0
 11
0.06666666666666465
 21
0.1154700538379254
 31
0.0
210
0.0
220
0.0
230
1.0
 40
0.5773502691896235
 41
3.141592653589773
 42
6.283185307179586
  0
ELLIPSE
  5
4CC
330
1F
100
AcDbEntity
  8
VISIBLE
100
AcDbEllipse
 10
8.203583522336501
 20
4.296795393934057
 30
0.0
 11
0.06666666666666465
 21
0.1154700538379254
 31
0.0
210
0.0
220
0.0
230
1.0
 40
0.5773502691896235
 41
0.2595949015195845
 42
3.141592653589773
  0
ELLIPSE
  5
4CD
330
1F
100
AcDbEntity
  8
VISIBLE
100
AcDbEllipse
 10
8.13426981393291
 20
4.303221797561243
 30
0.0
 11
0.003149999999999764
 21
0.005455960043843078
 31
0.0
210
0.0
220
0.0
230
0.9999999999999998
 40
0.5773502691895217
 41
0.0
 42
0.2595949015196511
  0
ELLIPSE
  5
4CE
330
1F
100
AcDbEntity
  8
VISIBLE
100
AcDbEllipse
 10
8.13426981393291
 20
4.303221797561243
 30
0.0
 11
0.003149999999999764
 21
0.005455960043843078
 31
0.0
210
0.0
220
0.0
230
0.9999999999999998
 40
0.5773502691895217
 41
3.141592653589549
 42
6.283185307179586
  0
ELLIPSE
  5
4CF
330
1F
100
AcDbEntity
  8
VISIBLE
100
AcDbEllipse
 10
8.13426981393291
 20
4.303221797561243
 30
0.0
 11
0.003149999999999764
 21
0.005455960043843078
 31
0.0
210
0.0
220
0.0
230
0.9999999999999998
 40
0.5773502691895217
 41
0.2595949015196511
 42
3.141592653589549
  0
LINE
  5
4D0
330
1F
100
AcDbEntity
  8
VISIBLE
100
AcDbLine
 10
8.140452389575769
 20
4.17928409864381
 30
0.0
 11
8.136916855669835
 21
4.181325340096129
 31
0.0
  0
LINE
  5
4D1
330
1F
100
AcDbEntity
  8
VISIBLE
100
AcDbLine
 10
8.2737857229091
 20
4.410224206319661
 30
0.0
 11
8.270250189003168
 21
4.412265447771981
 31
0.0
  0
LINE
  5
4D2
330
1F
100
AcDbEntity
  8
VISIBLE
100
AcDbLine
 10
7.679593827251234
 20
3.554622852617264
 30
0.0
 11
7.679593827251234
 21
3.533338185905355
 31
0.0
  0
ELLIPSE
  5
4D3
330
1F
100
AcDbEntity
  8
VISIBLE
100
AcDbEllipse
 10
8.372723464396323
 20
4.476024974666661
 30
0.0
 11
0.01666666666666572
 21
0.0
 31
0.0
210
0.0
220
0.0
230
1.0
 40
0.5773502691896555
 41
0.0
 42
0.7853981633974814
  0
ELLIPSE
  5
4D4
330
1F
100
AcDbEntity
  8
VISIBLE
100
AcDbEllipse
 10
8.350543881693111
 20
3.852425710983113
 30
0.0
 11
-0.0009833333333375549
 21
0.001703183294113231
 31
0.0
210
0.0
220
0.0
230
0.9999999999999997
 40
0.57735026919175
 41
0.785398163398098
 42
2.356194490193164
  0
ELLIPSE
  5
4D5
330
1F
100
AcDbEntity
  8
VISIBLE
100
AcDbEllipse
 10
7.599077935100127
 20
3.418566644430811
 30
0.0
 11
-0.005899999999999572
 21
0.0
 31
0.0
210
0.0
220
0.0
230
1.0
 40
0.577350269189688
 41
0.0
 42
0.7853981633973963
  0
ELLIPSE
  5
4D6
330
1F
100
AcDbEntity
  8
VISIBLE
100
AcDbEllipse
 10
7.599077935100127
 20
3.418566644430811
 30
0.0
 11
-0.005899999999999572
 21
0.0
 31
0.0
210
0.0
220
0.0
230
1.0
 40
0.577350269189688
 41
-0.785398163397304
 42
0.0
  0
LINE
  5
4D7
330
1F
100
AcDbEntity
  8
VISIBLE
100
AcDbLine
 10
7.649423937920607
 20
4.012893844436906
 30
0.0
 11
7.652205224593275
 21
4.011288067827749
 31
0.0
  0
ELLIPSE
  5
4D8
330
1F
100
AcDbEntity
  8
VISIBLE
100
AcDbEllipse
 10
7.667290169258588
 20
3.533665445788923
 30
0.0
 11
0.01250000000000018
 21
0.02165063509461129
 31
0.0
210
0.0
220
0.0
230
1.0
 40
0.577350269189583
 41
2.904645122209186
 42
3.030110407838393
  0
LINE
  5
4D9
330
1F
100
AcDbEntity
  8
VISIBLE
100
AcDbLine
 10
7.649423937920607
 20
4.034178511148816
 30
0.0
 11
7.652205224593275
 21
4.032572734539658
 31
0.0
  0
LINE
  5
4DA
330
1F
100
AcDbEntity
  8
VISIBLE
100
AcDbLine
 10
7.649423937920608
 20
3.515919592178897
 30
0.0
 11
7.649423937920608
 21
3.537204258890806
 31
0.0
  0
ELLIPSE
  5
4DB
330
1F
100
AcDbEntity
  8
VISIBLE
100
AcDbEllipse
 10
8.350543881693104
 20
4.497621309232199
 30
0.0
 11
-0.00295000000000023
 21
0.005109549882329034
 31
0.0
210
0.0
220
0.0
230
1.0
 40
0.5773502691896005
 41
0.0
 42
0.7853981633974202
  0
ELLIPSE
  5
4DC
330
1F
100
AcDbEntity
  8
VISIBLE
100
AcDbEllipse
 10
8.350543881693104
 20
4.497621309232199
 30
0.0
 11
-0.00295000000000023
 21
0.005109549882329034
 31
0.0
210
0.0
220
0.0
230
1.0
 40
0.5773502691896005
 41
-0.7853981633974264
 42
0.0
  0
LINE
  5
4DD
330
1F
100
AcDbEntity
  8
VISIBLE
100
AcDbLine
 10
7.652205224593275
 20
4.032572734539658
 30
0.0
 11
7.652205224593275
 21
4.011288067827749
 31
0.0
  0
LINE
  5
4DE
330
1F
100
AcDbEntity
  8
VISIBLE
100
AcDbLine
 10
7.644827743842897
 20
3.387335650210325
 30
0.0
 11
7.599077935100127
 21
3.413749314603337
 31
0.0
  0
LINE
  5
4DF
330
1F
100
AcDbEntity
  8
VISIBLE
100
AcDbLine
 10
8.346371951684104
 20
4.500029974145937
 30
0.0
 11
8.346371951684104
 21
3.854834375896847
 31
0.0
  0
LINE
  5
4E0
330
1F
100
AcDbEntity
  8
VISIBLE
100
AcDbLine
 10
7.679593827251233
 20
4.051597104875274
 30
0.0
 11
7.679593827251233
 21
4.030312438163365
 31
0.0
  0
LINE
  5
4E1
330
1F
100
AcDbEntity
  8
VISIBLE
100
AcDbLine
 10
7.649423937920607
 20
4.012893844436906
 30
0.0
 11
7.649423937920607
 21
4.034178511148816
 31
0.0
  0
LINE
  5
4E2
330
1F
100
AcDbEntity
  8
VISIBLE
100
AcDbLine
 10
7.649423937920608
 20
3.537204258890806
 30
0.0
 11
7.652205224593276
 21
3.535598482281648
 31
0.0
  0
ELLIPSE
  5
4E3
330
1F
100
AcDbEntity
  8
VISIBLE
100
AcDbEllipse
 10
7.599077935100127
 20
3.418566644430811
 30
0.0
 11
-0.00295000000000023
 21
0.005109549882328146
 31
0.0
210
0.0
220
0.0
230
1.0
 40
0.5773502691896757
 41
0.7853981633973598
 42
2.356194490192345
  0
ELLIPSE
  5
4E4
330
1F
100
AcDbEntity
  8
VISIBLE
100
AcDbEllipse
 10
7.599077935100126
 20
4.0637622426799
 30
0.0
 11
-0.005899999999999572
 21
0.0
 31
0.0
210
0.0
220
0.0
230
1.0
 40
0.5773502691896127
 41
-0.7853981633976599
 42
0.0
  0
ELLIPSE
  5
4E5
330
1F
100
AcDbEntity
  8
VISIBLE
100
AcDbEllipse
 10
7.664508882585921
 20
3.535271222398081
 30
0.0
 11
0.01250000000000018
 21
0.02165063509461085
 31
0.0
210
0.0
220
0.0
230
0.9999999999999998
 40
0.5773502691896314
 41
3.141592653589808
 42
4.949336511765328
  0
ELLIPSE
  5
4E6
330
1F
100
AcDbEntity
  8
VISIBLE
100
AcDbEllipse
 10
7.664508882585921
 20
3.535271222398081
 30
0.0
 11
0.01250000000000018
 21
0.02165063509461085
 31
0.0
210
0.0
220
0.0
230
0.9999999999999998
 40
0.5773502691896314
 41
2.904645122209172
 42
3.141592653589808
  0
LINE
  5
4E7
330
1F
100
AcDbEntity
  8
VISIBLE
100
AcDbLine
 10
8.349153238356772
 20
3.853228599287689
 30
0.0
 11
8.34915323835677
 21
4.498424197536778
 31
0.0
  0
LINE
  5
4E8
330
1F
100
AcDbEntity
  8
VISIBLE
100
AcDbLine
 10
7.652205224593276
 20
3.535598482281648
 30
0.0
 11
7.652205224593276
 21
3.514313815569739
 31
0.0
  0
ELLIPSE
  5
4E9
330
1F
100
AcDbEntity
  8
VISIBLE
100
AcDbEllipse
 10
8.372723464396323
 20
3.824406269980941
 30
0.0
 11
0.0166666666666675
 21
4.440892098500626E-16
 31
0.0
210
0.0
220
0.0
230
1.0
 40
0.5773502691895939
 41
0.0
 42
0.7853981633974386
  0
LINE
  5
4EA
330
1F
100
AcDbEntity
  8
VISIBLE
100
AcDbLine
 10
8.3845085774161
 20
3.831210408155338
 30
0.0
 11
8.350543881693104
 21
3.850819934373953
 31
0.0
  0
LINE
  5
4EB
330
1F
100
AcDbEntity
  8
VISIBLE
100
AcDbLine
 10
8.350543881693104
 20
4.499227085841357
 30
0.0
 11
8.358652112650875
 21
4.494545796515236
 31
0.0
  0
LINE
  5
4EC
330
1F
100
AcDbEntity
  8
VISIBLE
100
AcDbLine
 10
8.366241579035282
 20
4.490164016055194
 30
0.0
 11
8.3845085774161
 21
4.479617559622744
 31
0.0
  0
LINE
  5
4ED
330
1F
100
AcDbEntity
  8
VISIBLE
100
AcDbLine
 10
8.350543881693104
 20
3.847608381155637
 30
0.0
 11
8.3845085774161
 21
3.827998854937023
 31
0.0
  0
LINE
  5
4EE
330
1F
100
AcDbEntity
  8
VISIBLE
100
AcDbLine
 10
8.3845085774161
 20
3.814390578588227
 30
0.0
 11
7.644827743842897
 21
3.387335650210325
 31
0.0
  0
ELLIPSE
  5
4EF
330
1F
100
AcDbEntity
  8
VISIBLE
100
AcDbEllipse
 10
7.66450888258592
 20
4.03224547465609
 30
0.0
 11
0.01250000000000018
 21
0.02165063509461085
 31
0.0
210
0.0
220
0.0
230
0.9999999999999998
 40
0.5773502691896009
 41
3.141592653589845
 42
4.949336511765315
  0
ELLIPSE
  5
4F0
330
1F
100
AcDbEntity
  8
VISIBLE
100
AcDbEllipse
 10
7.66450888258592
 20
4.03224547465609
 30
0.0
 11
0.01250000000000018
 21
0.02165063509461085
 31
0.0
210
0.0
220
0.0
230
0.9999999999999998
 40
0.5773502691896009
 41
2.904645122209178
 42
3.141592653589845
  0
LINE
  5
4F1
330
1F
100
AcDbEntity
  8
VISIBLE
100
AcDbLine
 10
7.594906005091126
 20
3.416157979517074
 30
0.0
 11
7.599077935100127
 21
3.413749314603337
 31
0.0
  0
ELLIPSE
  5
4F2
330
1F
100
AcDbEntity
  8
VISIBLE
100
AcDbEllipse
 10
8.350543881693104
 20
3.852425710983111
 30
0.0
 11
0.00295000000000023
 21
-0.005109549882328146
 31
0.0
210
0.0
220
0.0
230
1.0
 40
0.5773502691896757
 41
-2.356194490192341
 42
-0.7853981633974483
  0
ELLIPSE
  5
4F3
330
1F
100
AcDbEntity
  8
VISIBLE
100
AcDbEllipse
 10
8.372723464396323
 20
3.821194716762625
 30
0.0
 11
0.0166666666666675
 21
0.0
 31
0.0
210
0.0
220
0.0
230
1.0
 40
0.5773502691895672
 41
0.0
 42
0.7853981633974597
  0
ELLIPSE
  5
4F4
330
1F
100
AcDbEntity
  8
VISIBLE
100
AcDbEllipse
 10
8.372723464396323
 20
3.821194716762625
 30
0.0
 11
0.0166666666666675
 21
0.0
 31
0.0
210
0.0
220
0.0
230
1.0
 40
0.5773502691895672
 41
5.497787143782094
 42
6.283185307179586
  0
ELLIPSE
  5
4F5
330
1F
100
AcDbEntity
  8
VISIBLE
100
AcDbEllipse
 10
7.599077935100126
 20
4.0637622426799
 30
0.0
 11
-0.002949999999999342
 21
0.005109549882328146
 31
0.0
210
0.0
220
0.0
230
1.0
 40
0.5773502691895135
 41
0.0
 42
0.7853981633974525
  0
LINE
  5
4F6
330
1F
100
AcDbEntity
  8
VISIBLE
100
AcDbLine
 10
8.3845085774161
 20
4.482829112841059
 30
0.0
 11
8.350543881693104
 21
4.502438639059673
 31
0.0
  0
ELLIPSE
  5
4F7
330
1F
100
AcDbEntity
  8
VISIBLE
100
AcDbEllipse
 10
8.350543881693106
 20
4.497621309232196
 30
0.0
 11
-0.0009833333333357785
 21
0.001703183294113231
 31
0.0
210
0.0
220
0.0
230
0.9999999999999998
 40
0.5773502691887611
 41
0.0
 42
0.7853981633964408
  0
ELLIPSE
  5
4F8
330
1F
100
AcDbEntity
  8
VISIBLE
100
AcDbEllipse
 10
8.350543881693106
 20
4.497621309232196
 30
0.0
 11
-0.0009833333333357785
 21
0.001703183294113231
 31
0.0
210
0.0
220
0.0
230
0.9999999999999998
 40
0.5773502691887611
 41
-0.7853981633983145
 42
0.0
  0
ELLIPSE
  5
4F9
330
1F
100
AcDbEntity
  8
VISIBLE
100
AcDbEllipse
 10
7.66450888258592
 20
4.03224547465609
 30
0.0
 11
0.01250000000000018
 21
0.02165063509461085
 31
0.0
210
0.0
220
0.0
230
0.9999999999999998
 40
0.5773502691896009
 41
0.0
 42
1.807743858175523
  0
ELLIPSE
  5
4FA
330
1F
100
AcDbEntity
  8
VISIBLE
100
AcDbEllipse
 10
7.66450888258592
 20
4.03224547465609
 30
0.0
 11
0.01250000000000018
 21
0.02165063509461085
 31
0.0
210
0.0
220
0.0
230
0.9999999999999998
 40
0.5773502691896009
 41
-0.2369475313806139
 42
0.0
  0
ELLIPSE
  5
4FB
330
1F
100
AcDbEntity
  8
VISIBLE
100
AcDbEllipse
 10
7.667290169258588
 20
3.533665445788923
 30
0.0
 11
0.01250000000000018
 21
0.02165063509461129
 31
0.0
210
0.0
220
0.0
230
1.0
 40
0.577350269189583
 41
0.1114822457514155
 42
1.807743858175528
  0
ELLIPSE
  5
4FC
330
1F
100
AcDbEntity
  8
VISIBLE
100
AcDbEllipse
 10
8.372723464396323
 20
4.472813421448346
 30
0.0
 11
0.01666666666666572
 21
0.0
 31
0.0
210
0.0
220
0.0
230
1.0
 40
0.5773502691896555
 41
0.0
 42
0.785398163397416
  0
ELLIPSE
  5
4FD
330
1F
100
AcDbEntity
  8
VISIBLE
100
AcDbEllipse
 10
8.372723464396323
 20
4.472813421448346
 30
0.0
 11
0.01666666666666572
 21
0.0
 31
0.0
210
0.0
220
0.0
230
1.0
 40
0.5773502691896555
 41
5.920241205969027
 42
6.283185307179586
  0
LINE
  5
4FE
330
1F
100
AcDbEntity
  8
VISIBLE
100
AcDbLine
 10
7.649423937920608
 20
3.515919592178897
 30
0.0
 11
7.652205224593276
 21
3.514313815569739
 31
0.0
  0
ELLIPSE
  5
4FF
330
1F
100
AcDbEntity
  8
VISIBLE
100
AcDbEllipse
 10
7.664508882585921
 20
3.535271222398081
 30
0.0
 11
0.01250000000000018
 21
0.02165063509461085
 31
0.0
210
0.0
220
0.0
230
0.9999999999999998
 40
0.5773502691896314
 41
0.0
 42
1.807743858175553
  0
ELLIPSE
  5
500
330
1F
100
AcDbEntity
  8
VISIBLE
100
AcDbEllipse
 10
7.664508882585921
 20
3.535271222398081
 30
0.0
 11
0.01250000000000018
 21
0.02165063509461085
 31
0.0
210
0.0
220
0.0
230
0.9999999999999998
 40
0.5773502691896314
 41
-0.2369475313806206
 42
0.0
  0
ELLIPSE
  5
501
330
1F
100
AcDbEntity
  8
VISIBLE
100
AcDbEllipse
 10
7.667290169258588
 20
4.030639698046932
 30
0.0
 11
0.01250000000000018
 21
0.02165063509461085
 31
0.0
210
0.0
220
0.0
230
0.9999999999999998
 40
0.5773502691896314
 41
2.904645122209153
 42
3.030110407838367
  0
ELLIPSE
  5
502
330
1F
100
AcDbEntity
  8
VISIBLE
100
AcDbEllipse
 10
7.667290169258588
 20
4.030639698046932
 30
0.0
 11
0.01250000000000018
 21
0.02165063509461085
 31
0.0
210
0.0
220
0.0
230
0.9999999999999998
 40
0.5773502691896314
 41
0.1114822457514763
 42
1.807743858175535
  0
LINE
  5
503
330
1F
100
AcDbEntity
  8
VISIBLE
100
AcDbLine
 10
8.389390131062989
 20
4.472813421448345
 30
0.0
 11
8.389390131062989
 21
4.476024974666661
 31
0.0
  0
LINE
  5
504
330
1F
100
AcDbEntity
  8
VISIBLE
100
AcDbLine
 10
7.596127935100126
 20
4.068871792562229
 30
0.0
 11
8.347593881693104
 21
4.502730859114528
 31
0.0
  0
LINE
  5
505
330
1F
100
AcDbEntity
  8
VISIBLE
100
AcDbLine
 10
7.593177935100127
 20
3.41856664443081
 30
0.0
 11
7.593177935100126
 21
4.0637622426799
 31
0.0
  0
LINE
  5
506
330
1F
100
AcDbEntity
  8
VISIBLE
100
AcDbLine
 10
8.38939013106299
 20
3.82440626998094
 30
0.0
 11
8.38939013106299
 21
3.821194716762625
 31
0.0
  0
ELLIPSE
  5
507
330
1F
100
AcDbEntity
  8
VISIBLE
100
AcDbEllipse
 10
8.358062783799724
 20
4.489823766884339
 30
0.0
 11
0.008199999999998653
 21
0.0
 31
0.0
210
0.0
220
0.0
230
1.0
 40
0.5773502691897703
 41
0.0
 42
2.356194490192523
  0
LINE
  5
508
330
1F
100
AcDbEntity
  8
VISIBLE
100
AcDbLine
 10
8.353065895879336
 20
3.84936384880463
 30
0.0
 11
8.356052672441509
 21
3.851088265056809
 31
0.0
  0
LINE
  5
509
330
1F
100
AcDbEntity
  8
VISIBLE
100
AcDbLine
 10
8.350112975479542
 20
3.854517550696706
 30
0.0
 11
8.34915323835677
 21
3.853963446210522
 31
0.0
  0
LINE
  5
50A
330
1F
100
AcDbEntity
  8
VISIBLE
100
AcDbLine
 10
8.363861059405451
 20
3.852330453048667
 30
0.0
 11
8.355894323004081
 21
3.847730855642774
 31
0.0
  0
LINE
  5
50B
330
1F
100
AcDbEntity
  8
VISIBLE
100
AcDbLine
 10
8.34915323835677
 20
3.857229432534234
 30
0.0
 11
8.352264508193992
 21
3.859025725012274
 31
0.0
  0
ELLIPSE
  5
50C
330
1F
100
AcDbEntity
  8
VISIBLE
100
AcDbEllipse
 10
8.35806278379972
 20
3.855678089030471
 30
0.0
 11
0.008200000000000429
 21
0.0
 31
0.0
210
0.0
220
0.0
230
1.0
 40
0.5773502691895911
 41
3.389252140509878
 42
4.464729493464741
  0
LINE
  5
50D
330
1F
100
AcDbEntity
  8
VISIBLE
100
AcDbLine
 10
8.352264508193993
 20
4.493171402866142
 30
0.0
 11
8.34915323835677
 21
4.4913751103881
 31
0.0
  0
ELLIPSE
  5
50E
330
1F
100
AcDbEntity
  8
VISIBLE
100
AcDbEllipse
 10
8.35806278379972
 20
3.855678089030471
 30
0.0
 11
0.008200000000000429
 21
0.0
 31
0.0
210
0.0
220
0.0
230
1.0
 40
0.5773502691895911
 41
0.0
 42
2.356194490192281
  0
ELLIPSE
  5
50F
330
1F
100
AcDbEntity
  8
VISIBLE
100
AcDbEllipse
 10
8.35806278379972
 20
3.855678089030471
 30
0.0
 11
0.008200000000000429
 21
0.0
 31
0.0
210
0.0
220
0.0
230
1.0
 40
0.5773502691895911
 41
5.497787143782228
 42
6.283185307179586
  0
ELLIPSE
  5
510
330
1F
100
AcDbEntity
  8
VISIBLE
100
AcDbEllipse
 10
8.35806278379972
 20
3.85567808903047
 30
0.0
 11
0.00416666666666643
 21
0.0
 31
0.0
210
0.0
220
0.0
230
1.0
 40
0.5773502691897621
 41
5.497787143782459
 42
6.283185307179586
  0
ELLIPSE
  5
511
330
1F
100
AcDbEntity
  8
VISIBLE
100
AcDbEllipse
 10
8.35806278379972
 20
3.85567808903047
 30
0.0
 11
0.00416666666666643
 21
0.0
 31
0.0
210
0.0
220
0.0
230
1.0
 40
0.5773502691897621
 41
0.0
 42
3.141592653589793
  0
ELLIPSE
  5
512
330
1F
100
AcDbEntity
  8
VISIBLE
100
AcDbEllipse
 10
8.35806278379972
 20
3.85567808903047
 30
0.0
 11
0.00416666666666643
 21
0.0
 31
0.0
210
0.0
220
0.0
230
1.0
 40
0.5773502691897621
 41
3.141592653589793
 42
5.497787143782459
  0
LINE
  5
513
330
1F
100
AcDbEntity
  8
VISIBLE
100
AcDbLine
 10
8.366262783799725
 20
4.489823766884339
 30
0.0
 11
8.366262783799721
 21
3.855678089030472
 31
0.0
  0
ELLIPSE
  5
514
330
1F
100
AcDbEntity
  8
VISIBLE
100
AcDbEllipse
 10
8.19509824096226
 20
4.124786780885281
 30
0.0
 11
-0.01769546583931714
 21
-0.03064944589729723
 31
0.0
210
0.0
220
0.0
230
1.0
 40
0.577350269189621
 41
-3.141592653589794
 42
-0.7853981633974594
  0
ELLIPSE
  5
515
330
1F
100
AcDbEntity
  8
VISIBLE
100
AcDbEllipse
 10
8.19509824096226
 20
4.124786780885281
 30
0.0
 11
-0.01769546583931714
 21
-0.03064944589729723
 31
0.0
210
0.0
220
0.0
230
1.0
 40
0.577350269189621
 41
0.0
 42
3.141592653589793
  0
ELLIPSE
  5
516
330
1F
100
AcDbEntity
  8
VISIBLE
100
AcDbEllipse
 10
8.19509824096226
 20
4.124786780885281
 30
0.0
 11
-0.01769546583931714
 21
-0.03064944589729723
 31
0.0
210
0.0
220
0.0
230
1.0
 40
0.577350269189621
 41
-0.7853981633974595
 42
0.0
  0
ELLIPSE
  5
517
330
1F
100
AcDbEntity
  8
VISIBLE
100
AcDbEllipse
 10
8.218904169262206
 20
4.111042421772998
 30
0.0
 11
-0.01944999999999908
 21
-0.03368838820721543
 31
0.0
210
0.0
220
0.0
230
1.0
 40
0.5773502691896375
 41
0.7853981633974025
 42
3.141592653589704
  0
ELLIPSE
  5
518
330
1F
100
AcDbEntity
  8
VISIBLE
100
AcDbEllipse
 10
8.218904169262206
 20
4.111042421772998
 30
0.0
 11
-0.01944999999999908
 21
-0.03368838820721543
 31
0.0
210
0.0
220
0.0
230
1.0
 40
0.5773502691896375
 41
0.0
 42
0.7853981633974025
  0
ELLIPSE
  5
519
330
1F
100
AcDbEntity
  8
VISIBLE
100
AcDbEllipse
 10
8.196041050003842
 20
4.124242449831329
 30
0.0
 11
-0.01769546583931892
 21
-0.03064944589729724
 31
0.0
210
0.0
220
0.0
230
0.9999999999999999
 40
0.5773502691896191
 41
-0.7853981633974453
 42
-0.0266430000052235
  0
ELLIPSE
  5
51A
330
1F
100
AcDbEntity
  8
VISIBLE
100
AcDbEllipse
 10
8.196041050003842
 20
4.124242449831329
 30
0.0
 11
-0.01769546583931892
 21
-0.03064944589729724
 31
0.0
210
0.0
220
0.0
230
0.9999999999999999
 40
0.5773502691896191
 41
-3.114949653584405
 42
-0.7853981633974452
  0
ELLIPSE
  5
51B
330
1F
100
AcDbEntity
  8
VISIBLE
100
AcDbEllipse
 10
8.19509824096226
 20
4.124786780885281
 30
0.0
 11
-0.01945000000000086
 21
-0.03368838820721454
 31
0.0
210
0.0
220
0.0
230
0.9999999999999999
 40
0.5773502691895963
 41
0.7853981633974978
 42
3.141592653589862
  0
ELLIPSE
  5
51C
330
1F
100
AcDbEntity
  8
VISIBLE
100
AcDbEllipse
 10
8.19509824096226
 20
4.124786780885281
 30
0.0
 11
-0.01945000000000086
 21
-0.03368838820721454
 31
0.0
210
0.0
220
0.0
230
0.9999999999999999
 40
0.5773502691895963
 41
-3.141592653589725
 42
0.0
  0
ELLIPSE
  5
51D
330
1F
100
AcDbEntity
  8
VISIBLE
100
AcDbEllipse
 10
8.19509824096226
 20
4.124786780885281
 30
0.0
 11
-0.01945000000000086
 21
-0.03368838820721454
 31
0.0
210
0.0
220
0.0
230
0.9999999999999999
 40
0.5773502691895963
 41
0.0
 42
0.7853981633974978
  0
LINE
  5
51E
330
1F
100
AcDbEntity
  8
VISIBLE
100
AcDbLine
 10
8.199454169262209
 20
4.077354033565784
 30
0.0
 11
8.17564824096226
 21
4.091098392678067
 31
0.0
  0
LINE
  5
51F
330
1F
100
AcDbEntity
  8
VISIBLE
100
AcDbLine
 10
8.238354169262207
 20
4.144730809980214
 30
0.0
 11
8.21454824096226
 21
4.158475169092497
 31
0.0
  0
ELLIPSE
  5
520
330
1F
100
AcDbEntity
  8
VISIBLE
100
AcDbEllipse
 10
8.557997125135904
 20
1.909006665536858
 30
0.0
 11
0.1999999999999993
 21
1.110223024625157E-15
 31
0.0
210
0.0
220
0.0
230
1.0
 40
0.5773502691896257
 41
3.400825798314794
 42
4.447975792799274
  0
ELLIPSE
  5
521
330
1F
100
AcDbEntity
  8
VISIBLE
100
AcDbEllipse
 10
8.557997125135904
 20
1.895398389188063
 30
0.0
 11
0.2000000000000011
 21
2.220446049250313E-15
 31
0.0
210
0.0
220
0.0
230
1.0
 40
0.5773502691896228
 41
3.400825798314781
 42
4.447975792799271
  0
ELLIPSE
  5
522
330
1F
100
AcDbEntity
  8
VISIBLE
100
AcDbEllipse
 10
8.477089429134132
 20
1.724054517641295
 30
0.0
 11
0.01666666666666572
 21
0.0
 31
0.0
210
0.0
220
0.0
230
1.0
 40
0.5773502691896821
 41
0.0
 42
0.7828081419672052
  0
ELLIPSE
  5
523
330
1F
100
AcDbEntity
  8
VISIBLE
100
AcDbEllipse
 10
8.477089429134132
 20
1.724054517641295
 30
0.0
 11
0.01666666666666572
 21
0.0
 31
0.0
210
0.0
220
0.0
230
1.0
 40
0.5773502691896821
 41
3.141592653589885
 42
6.283185307179586
  0
ELLIPSE
  5
524
330
1F
100
AcDbEntity
  8
VISIBLE
100
AcDbEllipse
 10
8.477089429134132
 20
1.724054517641295
 30
0.0
 11
0.01666666666666572
 21
0.0
 31
0.0
210
0.0
220
0.0
230
1.0
 40
0.5773502691896821
 41
0.7828081419672052
 42
3.141592653589885
  0
ELLIPSE
  5
525
330
1F
100
AcDbEntity
  8
VISIBLE
100
AcDbEllipse
 10
7.914026495749269
 20
1.63410358916788
 30
0.0
 11
-0.06666666666666643
 21
-4.440892098500626E-16
 31
0.0
210
0.0
220
0.0
230
1.0
 40
0.5773502691896246
 41
0.0
 42
1.30638313920949
  0
ELLIPSE
  5
526
330
1F
100
AcDbEntity
  8
VISIBLE
100
AcDbEllipse
 10
7.914026495749269
 20
1.63410358916788
 30
0.0
 11
-0.06666666666666643
 21
-4.440892098500626E-16
 31
0.0
210
0.0
220
0.0
230
1.0
 40
0.5773502691896246
 41
-0.0051452023229175
 42
0.0
  0
ELLIPSE
  5
527
330
1F
100
AcDbEntity
  8
VISIBLE
100
AcDbEllipse
 10
7.91402649574927
 20
1.647711865516676
 30
0.0
 11
-0.06666666666666732
 21
-8.881784197001252E-16
 31
0.0
210
0.0
220
0.0
230
1.0
 40
0.5773502691896203
 41
-0.0051452023229176
 42
0.0
  0
ELLIPSE
  5
528
330
1F
100
AcDbEntity
  8
VISIBLE
100
AcDbEllipse
 10
8.260805712259677
 20
1.863182776807453
 30
0.0
 11
0.0166666666666675
 21
4.440892098500626E-16
 31
0.0
210
0.0
220
0.0
230
1.0
 40
0.5773502691896072
 41
3.926990816987204
 42
5.497787143782146
  0
ELLIPSE
  5
529
330
1F
100
AcDbEntity
  8
VISIBLE
100
AcDbEllipse
 10
8.201166091132292
 20
1.690446315427424
 30
0.0
 11
0.3511942389848866
 21
0.08045610324000087
 31
0.0
210
0.0
220
0.0
230
1.0
 40
0.5337163838749475
 41
1.165305611474183
 42
3.014986586929814
  0
ELLIPSE
  5
52A
330
1F
100
AcDbEntity
  8
VISIBLE
100
AcDbEllipse
 10
8.102091547139745
 20
1.52496027334082
 30
0.0
 11
-0.06666666666666643
 21
-4.440892098500626E-16
 31
0.0
210
0.0
220
0.0
230
1.0
 40
0.5773502691896213
 41
0.2592331447249952
 42
1.570761486257391
  0
ELLIPSE
  5
52B
330
1F
100
AcDbEntity
  8
VISIBLE
100
AcDbEllipse
 10
7.925242753130453
 20
1.67044638956235
 30
0.0
 11
0.01666666666666661
 21
2.220446049250313E-16
 31
0.0
210
0.0
220
0.0
230
1.0
 40
0.5773502691896246
 41
3.926990816987204
 42
5.497787143782107
  0
ELLIPSE
  5
52C
330
1F
100
AcDbEntity
  8
VISIBLE
100
AcDbEllipse
 10
8.488305686515314
 20
1.746789041686968
 30
0.0
 11
0.06666666666666643
 21
6.661338147750940E-16
 31
0.0
210
0.0
220
0.0
230
1.0
 40
0.5773502691896246
 41
0.0
 42
1.306383139209462
  0
ELLIPSE
  5
52D
330
1F
100
AcDbEntity
  8
VISIBLE
100
AcDbEllipse
 10
8.488305686515314
 20
1.746789041686968
 30
0.0
 11
0.06666666666666643
 21
6.661338147750940E-16
 31
0.0
210
0.0
220
0.0
230
1.0
 40
0.5773502691896246
 41
6.278040104856662
 42
6.283185307179586
  0
ELLIPSE
  5
52E
330
1F
100
AcDbEntity
  8
VISIBLE
100
AcDbEllipse
 10
8.30024063512484
 20
1.869540633862824
 30
0.0
 11
0.06666666666666643
 21
2.220446049250313E-16
 31
0.0
210
0.0
220
0.0
230
1.0
 40
0.5773502691896246
 41
0.2592331447250117
 42
1.570761486257393
  0
ELLIPSE
  5
52F
330
1F
100
AcDbEntity
  8
VISIBLE
100
AcDbEllipse
 10
8.260805712259677
 20
1.849574500458658
 30
0.0
 11
0.0166666666666675
 21
4.440892098500626E-16
 31
0.0
210
0.0
220
0.0
230
1.0
 40
0.5773502691895939
 41
0.0
 42
0.7828081419672246
  0
ELLIPSE
  5
530
330
1F
100
AcDbEntity
  8
VISIBLE
100
AcDbEllipse
 10
8.260805712259677
 20
1.849574500458658
 30
0.0
 11
0.0166666666666675
 21
4.440892098500626E-16
 31
0.0
210
0.0
220
0.0
230
1.0
 40
0.5773502691895939
 41
3.14159265358977
 42
6.283185307179586
  0
ELLIPSE
  5
531
330
1F
100
AcDbEntity
  8
VISIBLE
100
AcDbEllipse
 10
8.260805712259677
 20
1.849574500458658
 30
0.0
 11
0.0166666666666675
 21
4.440892098500626E-16
 31
0.0
210
0.0
220
0.0
230
1.0
 40
0.5773502691895939
 41
0.7828081419672246
 42
3.14159265358977
  0
ELLIPSE
  5
532
330
1F
100
AcDbEntity
  8
VISIBLE
100
AcDbEllipse
 10
8.30024063512484
 20
1.855932357514028
 30
0.0
 11
0.06666666666666643
 21
4.440892098500626E-16
 31
0.0
210
0.0
220
0.0
230
1.0
 40
0.577350269189628
 41
0.2592331447249993
 42
1.57076148625739
  0
ELLIPSE
  5
533
330
1F
100
AcDbEntity
  8
VISIBLE
100
AcDbEllipse
 10
8.477089429134132
 20
1.737662793990089
 30
0.0
 11
0.01666666666666572
 21
0.0
 31
0.0
210
0.0
220
0.0
230
1.0
 40
0.5773502691896555
 41
3.926990816987193
 42
5.497787143782203
  0
ELLIPSE
  5
534
330
1F
100
AcDbEntity
  8
VISIBLE
100
AcDbEllipse
 10
8.141526470004907
 20
1.53131813039619
 30
0.0
 11
0.0166666666666675
 21
0.0
 31
0.0
210
0.0
220
0.0
230
1.0
 40
0.5773502691895939
 41
0.0
 42
0.7828081419672391
  0
ELLIPSE
  5
535
330
1F
100
AcDbEntity
  8
VISIBLE
100
AcDbEllipse
 10
8.141526470004907
 20
1.53131813039619
 30
0.0
 11
0.0166666666666675
 21
0.0
 31
0.0
210
0.0
220
0.0
230
1.0
 40
0.5773502691895939
 41
3.141592653589862
 42
6.283185307179586
  0
ELLIPSE
  5
536
330
1F
100
AcDbEntity
  8
VISIBLE
100
AcDbEllipse
 10
8.141526470004907
 20
1.53131813039619
 30
0.0
 11
0.0166666666666675
 21
0.0
 31
0.0
210
0.0
220
0.0
230
1.0
 40
0.5773502691895939
 41
0.7828081419672391
 42
3.141592653589862
  0
ELLIPSE
  5
537
330
1F
100
AcDbEntity
  8
VISIBLE
100
AcDbEllipse
 10
7.925242753130453
 20
1.656838113213554
 30
0.0
 11
0.01666666666666661
 21
6.661338147750940E-16
 31
0.0
210
0.0
220
0.0
230
1.0
 40
0.5773502691896113
 41
0.0
 42
0.7828081419672481
  0
ELLIPSE
  5
538
330
1F
100
AcDbEntity
  8
VISIBLE
100
AcDbEllipse
 10
7.925242753130453
 20
1.656838113213554
 30
0.0
 11
0.01666666666666661
 21
6.661338147750940E-16
 31
0.0
210
0.0
220
0.0
230
1.0
 40
0.5773502691896113
 41
3.141592653589724
 42
6.283185307179586
  0
ELLIPSE
  5
539
330
1F
100
AcDbEntity
  8
VISIBLE
100
AcDbEllipse
 10
7.925242753130453
 20
1.656838113213554
 30
0.0
 11
0.01666666666666661
 21
6.661338147750940E-16
 31
0.0
210
0.0
220
0.0
230
1.0
 40
0.5773502691896113
 41
0.7828081419672481
 42
3.141592653589724
  0
ELLIPSE
  5
53A
330
1F
100
AcDbEntity
  8
VISIBLE
100
AcDbEllipse
 10
8.201166091132292
 20
1.70405459177622
 30
0.0
 11
0.3511942389848866
 21
0.08045610324000087
 31
0.0
210
0.0
220
0.0
230
1.0
 40
0.5337163838749469
 41
1.165305611474183
 42
3.014986586929813
  0
ELLIPSE
  5
53B
330
1F
100
AcDbEntity
  8
VISIBLE
100
AcDbEllipse
 10
7.844335057128681
 20
1.485494241666785
 30
0.0
 11
-0.2000000000000002
 21
-1.110223024625157E-15
 31
0.0
210
0.0
220
0.0
230
1.0
 40
0.5773502691896232
 41
-2.882359508864789
 42
-1.835209514380306
  0
ELLIPSE
  5
53C
330
1F
100
AcDbEntity
  8
VISIBLE
100
AcDbEllipse
 10
8.141526470004907
 20
1.544926406744985
 30
0.0
 11
0.0166666666666675
 21
0.0
 31
0.0
210
0.0
220
0.0
230
1.0
 40
0.5773502691896072
 41
3.92699081698731
 42
5.497787143782161
  0
ELLIPSE
  5
53D
330
1F
100
AcDbEntity
  8
VISIBLE
100
AcDbEllipse
 10
8.488305686515314
 20
1.760397318035763
 30
0.0
 11
0.06666666666666643
 21
6.661338147750940E-16
 31
0.0
210
0.0
220
0.0
230
1.0
 40
0.5773502691896313
 41
0.0
 42
1.306383139209486
  0
ELLIPSE
  5
53E
330
1F
100
AcDbEntity
  8
VISIBLE
100
AcDbEllipse
 10
8.201166091132292
 20
1.690446315427424
 30
0.0
 11
0.3511942389848866
 21
0.08045610324000087
 31
0.0
210
0.0
220
0.0
230
1.0
 40
0.5337163838749475
 41
4.306898265063982
 42
6.156579240519603
  0
LINE
  5
53F
330
1F
100
AcDbEntity
  8
VISIBLE
100
AcDbLine
 10
7.847359829082605
 20
1.647711865516685
 30
0.0
 11
7.847359829082605
 21
1.634103589167889
 31
0.0
  0
LINE
  5
540
330
1F
100
AcDbEntity
  8
VISIBLE
100
AcDbLine
 10
8.554972353181984
 20
1.760397318035774
 30
0.0
 11
8.554972353181984
 21
1.746789041686979
 31
0.0
  0
ELLIPSE
  5
541
330
1F
100
AcDbEntity
  8
VISIBLE
100
AcDbEllipse
 10
8.27169339011308
 20
3.459416640637646
 30
0.0
 11
0.09999999999999964
 21
1.332267629550188E-15
 31
0.0
210
0.0
220
0.0
230
1.0
 40
0.5773502691896335
 41
0.7889875591644945
 42
3.141592653589785
  0
ELLIPSE
  5
542
330
1F
100
AcDbEntity
  8
VISIBLE
100
AcDbEllipse
 10
8.27169339011308
 20
3.459416640637646
 30
0.0
 11
0.09999999999999964
 21
1.332267629550188E-15
 31
0.0
210
0.0
220
0.0
230
1.0
 40
0.5773502691896335
 41
0.0
 42
0.7889875591644945
  0
LINE
  5
543
330
1F
100
AcDbEntity
  8
VISIBLE
100
AcDbLine
 10
8.37169339011308
 20
3.459416640637647
 30
0.0
 11
8.371693390113094
 21
1.867010958150876
 31
0.0
  0
LINE
  5
544
330
1F
100
AcDbEntity
  8
VISIBLE
100
AcDbLine
 10
8.17169339011308
 20
3.459416640637645
 30
0.0
 11
8.171693390113095
 21
1.894433703545294
 31
0.0
  0
ELLIPSE
  5
545
330
1F
100
AcDbEntity
  8
VISIBLE
100
AcDbEllipse
 10
8.566321215607475
 20
3.558103860719113
 30
0.0
 11
0.03333333333333321
 21
0.0
 31
0.0
210
0.0
220
0.0
230
1.0
 40
0.5773502691896246
 41
0.0
 42
0.7853981633974804
  0
ELLIPSE
  5
546
330
1F
100
AcDbEntity
  8
VISIBLE
100
AcDbEllipse
 10
8.283478503132855
 20
3.711169753090362
 30
0.0
 11
0.03333333333333321
 21
4.440892098500626E-16
 31
0.0
210
0.0
220
0.0
230
1.0
 40
0.5773502691896379
 41
0.7853981633974534
 42
2.356194490192325
  0
LINE
  5
547
330
1F
100
AcDbEntity
  8
VISIBLE
100
AcDbLine
 10
8.118486920855995
 20
3.290401848385605
 30
0.0
 11
8.111510133948288
 21
3.294429898184848
 31
0.0
  0
LINE
  5
548
330
1F
100
AcDbEntity
  8
VISIBLE
100
AcDbLine
 10
8.589891441647026
 20
3.534262160556023
 30
0.0
 11
8.37169339011308
 21
3.408285456766245
 31
0.0
  0
LINE
  5
549
330
1F
100
AcDbEntity
  8
VISIBLE
100
AcDbLine
 10
8.17169339011308
 20
3.292815402928318
 30
0.0
 11
8.142057146895548
 21
3.275704909928905
 31
0.0
  0
LINE
  5
54A
330
1F
100
AcDbEntity
  8
VISIBLE
100
AcDbLine
 10
7.835644208381376
 20
3.453701164571148
 30
0.0
 11
7.828667421473669
 21
3.457729214370392
 31
0.0
  0
LINE
  5
54B
330
1F
100
AcDbEntity
  8
VISIBLE
100
AcDbLine
 10
8.290455290040562
 20
3.71628646499751
 30
0.0
 11
8.283478503132855
 21
3.712258415198266
 31
0.0
  0
LINE
  5
54C
330
1F
100
AcDbEntity
  8
VISIBLE
100
AcDbLine
 10
8.125463707763704
 20
3.294429898184848
 30
0.0
 11
8.118486920855995
 21
3.290401848385605
 31
0.0
  0
LINE
  5
54D
330
1F
100
AcDbEntity
  8
VISIBLE
100
AcDbLine
 10
7.851483400279955
 20
3.452612502463245
 30
0.0
 11
7.835644208381376
 21
3.461757264169635
 31
0.0
  0
LINE
  5
54E
330
1F
100
AcDbEntity
  8
VISIBLE
100
AcDbLine
 10
8.118486920855995
 20
3.28016842457131
 30
0.0
 11
8.118486920855995
 21
3.290401848385605
 31
0.0
  0
LINE
  5
54F
330
1F
100
AcDbEntity
  8
VISIBLE
100
AcDbLine
 10
8.118486920855995
 20
3.298457947984091
 30
0.0
 11
8.102647728957416
 21
3.289313186277701
 31
0.0
  0
LINE
  5
550
330
1F
100
AcDbEntity
  8
VISIBLE
100
AcDbLine
 10
8.589891441647026
 20
3.571712137067909
 30
0.0
 11
8.307048729172406
 21
3.735011453253453
 31
0.0
  0
LINE
  5
551
330
1F
100
AcDbEntity
  8
VISIBLE
100
AcDbLine
 10
7.835644208381376
 20
3.461757264169635
 30
0.0
 11
7.819805016482797
 21
3.452612502463245
 31
0.0
  0
LINE
  5
552
330
1F
100
AcDbEntity
  8
VISIBLE
100
AcDbLine
 10
7.835644208381376
 20
3.443467740756854
 30
0.0
 11
7.835644208381376
 21
3.453701164571148
 31
0.0
  0
LINE
  5
553
330
1F
100
AcDbEntity
  8
VISIBLE
100
AcDbLine
 10
8.094916694816444
 20
3.275704909928905
 30
0.0
 11
7.812073982341825
 21
3.439004226114449
 31
0.0
  0
LINE
  5
554
330
1F
100
AcDbEntity
  8
VISIBLE
100
AcDbLine
 10
8.259908277093304
 20
3.735011453253452
 30
0.0
 11
7.812073982341825
 21
3.476454202626334
 31
0.0
  0
LINE
  5
555
330
1F
100
AcDbEntity
  8
VISIBLE
100
AcDbLine
 10
8.582160407506054
 20
3.547870436904819
 30
0.0
 11
8.566321215607475
 21
3.538725675198428
 31
0.0
  0
LINE
  5
556
330
1F
100
AcDbEntity
  8
VISIBLE
100
AcDbLine
 10
7.835644208381376
 20
3.443467740756854
 30
0.0
 11
7.851483400279955
 21
3.452612502463245
 31
0.0
  0
ELLIPSE
  5
557
330
1F
100
AcDbEntity
  8
VISIBLE
100
AcDbEllipse
 10
8.118486920855995
 20
3.289313186277701
 30
0.0
 11
-0.03333333333333321
 21
-4.440892098500626E-16
 31
0.0
210
0.0
220
0.0
230
1.0
 40
0.5773502691896379
 41
0.7853981633974534
 42
2.356194490192363
  0
LINE
  5
558
330
1F
100
AcDbEntity
  8
VISIBLE
100
AcDbLine
 10
8.283478503132855
 20
3.712258415198266
 30
0.0
 11
8.276501716225148
 21
3.71628646499751
 31
0.0
  0
LINE
  5
559
330
1F
100
AcDbEntity
  8
VISIBLE
100
AcDbLine
 10
8.566321215607475
 20
3.538725675198428
 30
0.0
 11
8.566321215607475
 21
3.548959099012722
 31
0.0
  0
LINE
  5
55A
330
1F
100
AcDbEntity
  8
VISIBLE
100
AcDbLine
 10
7.842620995289083
 20
3.457729214370392
 30
0.0
 11
7.835644208381376
 21
3.453701164571148
 31
0.0
  0
LINE
  5
55B
330
1F
100
AcDbEntity
  8
VISIBLE
100
AcDbLine
 10
8.307048729172406
 20
3.724778029439158
 30
0.0
 11
8.589891441647026
 21
3.561478713253615
 31
0.0
  0
ELLIPSE
  5
55C
330
1F
100
AcDbEntity
  8
VISIBLE
100
AcDbEllipse
 10
8.566321215607475
 20
3.547870436904819
 30
0.0
 11
0.03333333333333321
 21
0.0
 31
0.0
210
0.0
220
0.0
230
1.0
 40
0.5773502691896246
 41
0.0
 42
0.7853981633974804
  0
ELLIPSE
  5
55D
330
1F
100
AcDbEntity
  8
VISIBLE
100
AcDbEllipse
 10
8.566321215607475
 20
3.547870436904819
 30
0.0
 11
0.03333333333333321
 21
0.0
 31
0.0
210
0.0
220
0.0
230
1.0
 40
0.5773502691896246
 41
5.497787143782122
 42
6.283185307179586
  0
LINE
  5
55E
330
1F
100
AcDbEntity
  8
VISIBLE
100
AcDbLine
 10
8.134326112754573
 20
3.289313186277701
 30
0.0
 11
8.118486920855995
 21
3.298457947984091
 31
0.0
  0
LINE
  5
55F
330
1F
100
AcDbEntity
  8
VISIBLE
100
AcDbLine
 10
8.283478503132855
 20
3.702024991383972
 30
0.0
 11
8.267639311234277
 21
3.711169753090362
 31
0.0
  0
ELLIPSE
  5
560
330
1F
100
AcDbEntity
  8
VISIBLE
100
AcDbEllipse
 10
7.835644208381376
 20
3.452612502463245
 30
0.0
 11
-0.03333333333333321
 21
0.0
 31
0.0
210
0.0
220
0.0
230
1.0
 40
0.5773502691896246
 41
0.0
 42
0.7853981633974639
  0
ELLIPSE
  5
561
330
1F
100
AcDbEntity
  8
VISIBLE
100
AcDbEllipse
 10
7.835644208381376
 20
3.452612502463245
 30
0.0
 11
-0.03333333333333321
 21
0.0
 31
0.0
210
0.0
220
0.0
230
1.0
 40
0.5773502691896246
 41
-0.7853981633974639
 42
0.0
  0
LINE
  5
562
330
1F
100
AcDbEntity
  8
VISIBLE
100
AcDbLine
 10
8.566321215607475
 20
3.548959099012722
 30
0.0
 11
8.559344428699768
 21
3.552987148811966
 31
0.0
  0
LINE
  5
563
330
1F
100
AcDbEntity
  8
VISIBLE
100
AcDbLine
 10
8.573298002515182
 20
3.552987148811966
 30
0.0
 11
8.566321215607475
 21
3.548959099012722
 31
0.0
  0
ELLIPSE
  5
564
330
1F
100
AcDbEntity
  8
VISIBLE
100
AcDbEllipse
 10
7.835644208381376
 20
3.462845926277539
 30
0.0
 11
-0.03333333333333321
 21
0.0
 31
0.0
210
0.0
220
0.0
230
1.0
 40
0.5773502691896246
 41
-0.7853981633974639
 42
0.0
  0
LINE
  5
565
330
1F
100
AcDbEntity
  8
VISIBLE
100
AcDbLine
 10
8.118486920855995
 20
3.28016842457131
 30
0.0
 11
8.134326112754573
 21
3.289313186277701
 31
0.0
  0
LINE
  5
566
330
1F
100
AcDbEntity
  8
VISIBLE
100
AcDbLine
 10
8.550482023708897
 20
3.547870436904819
 30
0.0
 11
8.566321215607475
 21
3.557015198611209
 31
0.0
  0
LINE
  5
567
330
1F
100
AcDbEntity
  8
VISIBLE
100
AcDbLine
 10
7.812073982341825
 20
3.46622077881204
 30
0.0
 11
8.259908277093304
 21
3.724778029439158
 31
0.0
  0
LINE
  5
568
330
1F
100
AcDbEntity
  8
VISIBLE
100
AcDbLine
 10
7.819805016482797
 20
3.452612502463245
 30
0.0
 11
7.835644208381376
 21
3.443467740756854
 31
0.0
  0
LINE
  5
569
330
1F
100
AcDbEntity
  8
VISIBLE
100
AcDbLine
 10
8.283478503132855
 20
3.702024991383972
 30
0.0
 11
8.283478503132855
 21
3.712258415198266
 31
0.0
  0
LINE
  5
56A
330
1F
100
AcDbEntity
  8
VISIBLE
100
AcDbLine
 10
8.283478503132855
 20
3.720314514796753
 30
0.0
 11
8.299317695031434
 21
3.711169753090363
 31
0.0
  0
LINE
  5
56B
330
1F
100
AcDbEntity
  8
VISIBLE
100
AcDbLine
 10
8.299317695031434
 20
3.711169753090363
 30
0.0
 11
8.283478503132855
 21
3.702024991383972
 31
0.0
  0
LINE
  5
56C
330
1F
100
AcDbEntity
  8
VISIBLE
100
AcDbLine
 10
8.566321215607475
 20
3.557015198611209
 30
0.0
 11
8.582160407506054
 21
3.547870436904819
 31
0.0
  0
ELLIPSE
  5
56D
330
1F
100
AcDbEntity
  8
VISIBLE
100
AcDbEllipse
 10
8.283478503132855
 20
3.721403176904657
 30
0.0
 11
0.03333333333333321
 21
0.0
 31
0.0
210
0.0
220
0.0
230
1.0
 40
0.5773502691896379
 41
0.7853981633974525
 42
2.356194490192341
  0
LINE
  5
56E
330
1F
100
AcDbEntity
  8
VISIBLE
100
AcDbLine
 10
8.102647728957416
 20
3.289313186277701
 30
0.0
 11
8.118486920855995
 21
3.28016842457131
 31
0.0
  0
LINE
  5
56F
330
1F
100
AcDbEntity
  8
VISIBLE
100
AcDbLine
 10
8.566321215607475
 20
3.538725675198428
 30
0.0
 11
8.550482023708897
 21
3.547870436904819
 31
0.0
  0
LINE
  5
570
330
1F
100
AcDbEntity
  8
VISIBLE
100
AcDbLine
 10
8.267639311234277
 20
3.711169753090362
 30
0.0
 11
8.283478503132855
 21
3.720314514796753
 31
0.0
  0
LINE
  5
571
330
1F
100
AcDbEntity
  8
VISIBLE
100
AcDbLine
 10
7.802310875048042
 20
3.452612502463245
 30
0.0
 11
7.802310875048042
 21
3.462845926277539
 31
0.0
  0
LINE
  5
572
330
1F
100
AcDbEntity
  8
VISIBLE
100
AcDbLine
 10
8.599654548940808
 20
3.547870436904819
 30
0.0
 11
8.599654548940808
 21
3.558103860719113
 31
0.0
  0
LINE
  5
573
330
1F
100
AcDbEntity
  8
TANGENT_EDGES
100
AcDbLine
 10
8.763706373940408
 20
3.615573661132323
 30
0.0
 11
8.763706373940408
 21
3.613967884523166
 31
0.0
  0
LINE
  5
574
330
1F
100
AcDbEntity
  8
TANGENT_EDGES
100
AcDbLine
 10
8.763706373940408
 20
3.613967884523165
 30
0.0
 11
8.762315730604074
 21
3.613164996218586
 31
0.0
  0
LINE
  5
575
330
1F
100
AcDbEntity
  8
TANGENT_EDGES
100
AcDbLine
 10
8.766487660613077
 20
4.251052950068376
 30
0.0
 11
8.766487660613075
 21
3.617179437741481
 31
0.0
  0
LINE
  5
576
330
1F
100
AcDbEntity
  8
TANGENT_EDGES
100
AcDbLine
 10
8.709329862475323
 20
3.644546039596157
 30
0.0
 11
8.706548575802657
 21
3.646151816205315
 31
0.0
  0
LINE
  5
577
330
1F
100
AcDbEntity
  8
TANGENT_EDGES
100
AcDbLine
 10
8.762315730604074
 20
3.609953443000271
 30
0.0
 11
8.371693390113078
 21
3.384427529566315
 31
0.0
  0
LINE
  5
578
330
1F
100
AcDbEntity
  8
TANGENT_EDGES
100
AcDbLine
 10
8.171693390113077
 20
3.268957475728392
 30
0.0
 11
8.023436284716205
 21
3.183361196018233
 31
0.0
  0
LINE
  5
579
330
1F
100
AcDbEntity
  8
TANGENT_EDGES
100
AcDbLine
 10
8.364921719577232
 20
3.849023641895911
 30
0.0
 11
8.364921719577232
 21
3.853083543469754
 31
0.0
  0
ELLIPSE
  5
57A
330
1F
100
AcDbEntity
  8
TANGENT_EDGES
100
AcDbEllipse
 10
8.203361013488506
 20
4.20413100590993
 30
0.0
 11
-0.004100000000001103
 21
-0.007101408311032564
 31
0.0
210
0.0
220
0.0
230
1.0
 40
0.5773502691894908
 41
0.0
 42
6.283185307179586
  0
ELLIPSE
  5
57B
330
1F
100
AcDbEntity
  8
TANGENT_EDGES
100
AcDbEllipse
 10
8.273051049463222
 20
4.383039746919227
 30
0.0
 11
-0.004099999999999326
 21
-0.007101408311031676
 31
0.0
210
0.0
220
0.0
230
1.0
 40
0.5773502691898493
 41
0.0
 42
6.283185307179586
  0
ELLIPSE
  5
57C
330
1F
100
AcDbEntity
  8
TANGENT_EDGES
100
AcDbEllipse
 10
8.134269813932912
 20
4.303221797561243
 30
0.0
 11
-0.004100000000001103
 21
-0.007101408311032564
 31
0.0
210
0.0
220
0.0
230
1.0
 40
0.5773502691894908
 41
0.0
 42
6.283185307179586
  0
LINE
  5
57D
330
1F
100
AcDbEntity
  8
TANGENT_EDGES
100
AcDbLine
 10
7.599077935100127
 20
3.413749314603337
 30
0.0
 11
8.350543881693104
 21
3.847608381155637
 31
0.0
  0
LINE
  5
57E
330
1F
100
AcDbEntity
  8
TANGENT_EDGES
100
AcDbLine
 10
8.3845085774161
 20
4.482829112841059
 30
0.0
 11
8.3845085774161
 21
4.479617559622744
 31
0.0
  0
LINE
  5
57F
330
1F
100
AcDbEntity
  8
TANGENT_EDGES
100
AcDbLine
 10
7.594906005091126
 20
4.066170907593637
 30
0.0
 11
8.346371951684104
 21
4.500029974145937
 31
0.0
  0
LINE
  5
580
330
1F
100
AcDbEntity
  8
TANGENT_EDGES
100
AcDbLine
 10
8.346371951684104
 20
3.854834375896847
 30
0.0
 11
7.594906005091126
 21
3.420975309344548
 31
0.0
  0
LINE
  5
581
330
1F
100
AcDbEntity
  8
TANGENT_EDGES
100
AcDbLine
 10
8.34915323835677
 20
4.498424197536779
 30
0.0
 11
8.350543881693104
 21
4.499227085841357
 31
0.0
  0
LINE
  5
582
330
1F
100
AcDbEntity
  8
TANGENT_EDGES
100
AcDbLine
 10
7.594906005091126
 20
3.420975309344548
 30
0.0
 11
7.594906005091126
 21
4.066170907593637
 31
0.0
  0
LINE
  5
583
330
1F
100
AcDbEntity
  8
TANGENT_EDGES
100
AcDbLine
 10
8.3845085774161
 20
3.831210408155338
 30
0.0
 11
8.3845085774161
 21
3.827998854937023
 31
0.0
  0
LINE
  5
584
330
1F
100
AcDbEntity
  8
TANGENT_EDGES
100
AcDbLine
 10
8.352264508193993
 20
4.493171402866142
 30
0.0
 11
8.352264508193992
 21
3.859025725012274
 31
0.0
  0
LINE
  5
585
330
1F
100
AcDbEntity
  8
TANGENT_EDGES
100
AcDbLine
 10
8.364679757627606
 20
1.865798865432537
 30
0.0
 11
8.364679757627606
 21
1.879407141781332
 31
0.0
  0
LINE
  5
586
330
1F
100
AcDbEntity
  8
TANGENT_EDGES
100
AcDbLine
 10
8.30024295782734
 20
1.908030651785438
 30
0.0
 11
8.30024295782734
 21
1.894422375436642
 31
0.0
  0
LINE
  5
587
330
1F
100
AcDbEntity
  8
TANGENT_EDGES
100
AcDbLine
 10
7.847360711517554
 20
1.634301627223841
 30
0.0
 11
7.847360711517554
 21
1.647909903572637
 31
0.0
  0
LINE
  5
588
330
1F
100
AcDbEntity
  8
TANGENT_EDGES
100
AcDbLine
 10
8.505728546170461
 20
1.797549654911037
 30
0.0
 11
8.505728546170463
 21
1.783941378562242
 31
0.0
  0
LINE
  5
589
330
1F
100
AcDbEntity
  8
TANGENT_EDGES
100
AcDbLine
 10
8.259908277093304
 20
3.735011453253452
 30
0.0
 11
8.259908277093304
 21
3.724778029439158
 31
0.0
  0
LINE
  5
58A
330
1F
100
AcDbEntity
  8
TANGENT_EDGES
100
AcDbLine
 10
7.812073982341825
 20
3.46622077881204
 30
0.0
 11
7.812073982341825
 21
3.476454202626334
 31
0.0
  0
LINE
  5
58B
330
1F
100
AcDbEntity
  8
TANGENT_EDGES
100
AcDbLine
 10
8.589891441647026
 20
3.571712137067909
 30
0.0
 11
8.589891441647026
 21
3.561478713253615
 31
0.0
  0
LINE
  5
58C
330
1F
100
AcDbEntity
  8
TANGENT_EDGES
100
AcDbLine
 10
8.307048729172406
 20
3.724778029439158
 30
0.0
 11
8.307048729172406
 21
3.735011453253453
 31
0.0
  0
ENDSEC
  0
SECTION
  2
OBJECTS
  0
DICTIONARY
  5
C
330
0
100
AcDbDictionary
  3
ACAD_GROUP
350
D
  3
ACAD_LAYOUT
350
1A
  3
ACAD_MLEADERSTYLE
350
5B0
  3
ACAD_MLINESTYLE
350
17
  3
ACAD_PLOTSETTINGS
350
19
  3
ACAD_SCALELIST
350
3B
  3
ACAD_TABLESTYLE
350
5AF
  3
ACAD_VISUALSTYLE
350
2A
  3
ACDBHEADERROUNDTRIPXREC
350
58D
  3
ACDBVARIABLEDICTIONARY
350
5AD
  0
DICTIONARY
  5
D
102
{ACAD_REACTORS
330
C
102
}
330
C
100
AcDbDictionary
  0
DICTIONARY
  5
1A
102
{ACAD_REACTORS
330
C
102
}
330
C
100
AcDbDictionary
  0
DICTIONARY
  5
5B0
102
{ACAD_REACTORS
330
C
102
}
330
C
100
AcDbDictionary
  0
DICTIONARY
  5
17
102
{ACAD_REACTORS
330
C
102
}
330
C
100
AcDbDictionary
  3
STANDARD
350
18
  0
DICTIONARY
  5
19
102
{ACAD_REACTORS
330
C
102
}
330
C
100
AcDbDictionary
  0
DICTIONARY
  5
3B
102
{ACAD_REACTORS
330
C
102
}
330
C
100
AcDbDictionary
  3
A0
350
3C
  3
A1
350
3D
  3
A2
350
3E
  3
A3
350
3F
  3
A4
350
40
  3
A5
350
41
  3
A6
350
42
  3
A7
350
43
  3
A8
350
44
  3
A9
350
45
  3
B0
350
46
  3
B1
350
47
  3
B2
350
48
  3
B3
350
49
  3
B4
350
4A
  3
B5
350
4B
  3
B6
350
4C
  3
B7
350
4D
  3
B8
350
4E
  3
B9
350
4F
  3
C0
350
50
  3
C1
350
51
  3
C2
350
52
  3
C3
350
53
  3
C4
350
54
  3
C5
350
55
  3
C6
350
56
  3
C7
350
57
  3
C8
350
58
  3
C9
350
59
  3
D0
350
5A
  3
D1
350
5B
  3
D2
350
5C
  0
DICTIONARY
  5
5AF
102
{ACAD_REACTORS
330
C
102
}
330
C
100
AcDbDictionary
  0
DICTIONARY
  5
2A
102
{ACAD_REACTORS
330
C
102
}
330
C
100
AcDbDictionary
  3
2DWIREFRAME
350
2F
  3
3D_HIDDEN
350
31
  3
3DWIREFRAME
350
30
  3
BASIC
350
32
  3
BRIGHTEN
350
36
  3
COLORCHANGE
350
3A
  3
CONCEPTUAL
350
34
  3
DIM
350
35
  3
FACEPATTERN
350
39
  3
FLAT
350
2B
  3
FLATWITHEDGES
350
2C
  3
GOURAUD
350
2D
  3
GOURAUDWITHEDGES
350
2E
  3
LINEPATTERN
350
38
  3
REALISTIC
350
33
  3
THICKEN
350
37
  0
DICTIONARY
  5
58D
102
{ACAD_REACTORS
330
C
102
}
330
C
100
AcDbDictionary
  3
CEPSNTYPE
350
596
  3
DIMSTYLEDATA
350
5AC
  3
FINGERPRINTGUID
350
597
  3
HYPERLINKBASE
350
590
  3
INSUNITS
350
595
  3
LAYOUTDICT
350
592
  3
LWETCUNION
350
594
  3
PLOTSETDICT
350
593
  3
PSVPSCALE
350
599
  3
PUCSBASE
350
59C
  3
PUCSORGBACK
350
5A2
  3
PUCSORGBOTTOM
350
59E
  3
PUCSORGFRONT
350
5A1
  3
PUCSORGLEFT
350
59F
  3
PUCSORGRIGHT
350
5A0
  3
PUCSORGTOP
350
59D
  3
PUCSORTHOREF
350
59A
  3
PUCSORTHOVIEW
350
59B
  3
STYLESHEET
350
591
  3
TSTACKALIGN
350
58E
  3
TSTACKSIZE
350
58F
  3
UCSBASE
350
5A5
  3
UCSORGBACK
350
5AB
  3
UCSORGBOTTOM
350
5A7
  3
UCSORGFRONT
350
5AA
  3
UCSORGLEFT
350
5A8
  3
UCSORGRIGHT
350
5A9
  3
UCSORGTOP
350
5A6
  3
UCSORTHOREF
350
5A3
  3
UCSORTHOVIEW
350
5A4
  3
VERSIONGUID
350
598
  0
DICTIONARY
  5
5AD
102
{ACAD_REACTORS
330
C
102
}
330
C
100
AcDbDictionary
  3
CANNOSCALE
350
5AE
  0
MLINESTYLE
  5
18
102
{ACAD_REACTORS
330
17
102
}
330
17
100
AcDbMlineStyle
  2
Standard
 70
     0
  3

 62
   256
 51
90.0
 52
90.0
 71
     2
 49
0.5
 62
   256
  6
BYLAYER
 49
-0.5
 62
   256
  6
BYLAYER
  0
SCALE
  5
3C
102
{ACAD_REACTORS
330
3B
102
}
330
3B
100
AcDbScale
 70
     0
300
1:1
140
1.0
141
1.0
290
     1
  0
SCALE
  5
3D
102
{ACAD_REACTORS
330
3B
102
}
330
3B
100
AcDbScale
 70
     0
300
1:2
140
1.0
141
2.0
290
     0
  0
SCALE
  5
3E
102
{ACAD_REACTORS
330
3B
102
}
330
3B
100
AcDbScale
 70
     0
300
1:4
140
1.0
141
4.0
290
     0
  0
SCALE
  5
3F
102
{ACAD_REACTORS
330
3B
102
}
330
3B
100
AcDbScale
 70
     0
300
1:5
140
1.0
141
5.0
290
     0
  0
SCALE
  5
40
102
{ACAD_REACTORS
330
3B
102
}
330
3B
100
AcDbScale
 70
     0
300
1:8
140
1.0
141
8.0
290
     0
  0
SCALE
  5
41
102
{ACAD_REACTORS
330
3B
102
}
330
3B
100
AcDbScale
 70
     0
300
1:10
140
1.0
141
10.0
290
     0
  0
SCALE
  5
42
102
{ACAD_REACTORS
330
3B
102
}
330
3B
100
AcDbScale
 70
     0
300
1:16
140
1.0
141
16.0
290
     0
  0
SCALE
  5
43
102
{ACAD_REACTORS
330
3B
102
}
330
3B
100
AcDbScale
 70
     0
300
1:20
140
1.0
141
20.0
290
     0
  0
SCALE
  5
44
102
{ACAD_REACTORS
330
3B
102
}
330
3B
100
AcDbScale
 70
     0
300
1:30
140
1.0
141
30.0
290
     0
  0
SCALE
  5
45
102
{ACAD_REACTORS
330
3B
102
}
330
3B
100
AcDbScale
 70
     0
300
1:40
140
1.0
141
40.0
290
     0
  0
SCALE
  5
46
102
{ACAD_REACTORS
330
3B
102
}
330
3B
100
AcDbScale
 70
     0
300
1:50
140
1.0
141
50.0
290
     0
  0
SCALE
  5
47
102
{ACAD_REACTORS
330
3B
102
}
330
3B
100
AcDbScale
 70
     0
300
1:100
140
1.0
141
100.0
290
     0
  0
SCALE
  5
48
102
{ACAD_REACTORS
330
3B
102
}
330
3B
100
AcDbScale
 70
     0
300
2:1
140
2.0
141
1.0
290
     0
  0
SCALE
  5
49
102
{ACAD_REACTORS
330
3B
102
}
330
3B
100
AcDbScale
 70
     0
300
4:1
140
4.0
141
1.0
290
     0
  0
SCALE
  5
4A
102
{ACAD_REACTORS
330
3B
102
}
330
3B
100
AcDbScale
 70
     0
300
8:1
140
8.0
141
1.0
290
     0
  0
SCALE
  5
4B
102
{ACAD_REACTORS
330
3B
102
}
330
3B
100
AcDbScale
 70
     0
300
10:1
140
10.0
141
1.0
290
     0
  0
SCALE
  5
4C
102
{ACAD_REACTORS
330
3B
102
}
330
3B
100
AcDbScale
 70
     0
300
100:1
140
100.0
141
1.0
290
     0
  0
SCALE
  5
4D
102
{ACAD_REACTORS
330
3B
102
}
330
3B
100
AcDbScale
 70
     0
300
1/128" = 1'-0"
140
0.0078125
141
12.0
290
     0
  0
SCALE
  5
4E
102
{ACAD_REACTORS
330
3B
102
}
330
3B
100
AcDbScale
 70
     0
300
1/64" = 1'-0"
140
0.015625
141
12.0
290
     0
  0
SCALE
  5
4F
102
{ACAD_REACTORS
330
3B
102
}
330
3B
100
AcDbScale
 70
     0
300
1/32" = 1'-0"
140
0.03125
141
12.0
290
     0
  0
SCALE
  5
50
102
{ACAD_REACTORS
330
3B
102
}
330
3B
100
AcDbScale
 70
     0
300
1/16" = 1'-0"
140
0.0625
141
12.0
290
     0
  0
SCALE
  5
51
102
{ACAD_REACTORS
330
3B
102
}
330
3B
100
AcDbScale
 70
     0
300
3/32" = 1'-0"
140
0.09375
141
12.0
290
     0
  0
SCALE
  5
52
102
{ACAD_REACTORS
330
3B
102
}
330
3B
100
AcDbScale
 70
     0
300
1/8" = 1'-0"
140
0.125
141
12.0
290
     0
  0
SCALE
  5
53
102
{ACAD_REACTORS
330
3B
102
}
330
3B
100
AcDbScale
 70
     0
300
3/16" = 1'-0"
140
0.1875
141
12.0
290
     0
  0
SCALE
  5
54
102
{ACAD_REACTORS
330
3B
102
}
330
3B
100
AcDbScale
 70
     0
300
1/4" = 1'-0"
140
0.25
141
12.0
290
     0
  0
SCALE
  5
55
102
{ACAD_REACTORS
330
3B
102
}
330
3B
100
AcDbScale
 70
     0
300
3/8" = 1'-0"
140
0.375
141
12.0
290
     0
  0
SCALE
  5
56
102
{ACAD_REACTORS
330
3B
102
}
330
3B
100
AcDbScale
 70
     0
300
1/2" = 1'-0"
140
0.5
141
12.0
290
     0
  0
SCALE
  5
57
102
{ACAD_REACTORS
330
3B
102
}
330
3B
100
AcDbScale
 70
     0
300
3/4" = 1'-0"
140
0.75
141
12.0
290
     0
  0
SCALE
  5
58
102
{ACAD_REACTORS
330
3B
102
}
330
3B
100
AcDbScale
 70
     0
300
1" = 1'-0"
140
1.0
141
12.0
290
     0
  0
SCALE
  5
59
102
{ACAD_REACTORS
330
3B
102
}
330
3B
100
AcDbScale
 70
     0
300
1-1/2" = 1'-0"
140
1.5
141
12.0
290
     0
  0
SCALE
  5
5A
102
{ACAD_REACTORS
330
3B
102
}
330
3B
100
AcDbScale
 70
     0
300
3" = 1'-0"
140
3.0
141
12.0
290
     0
  0
SCALE
  5
5B
102
{ACAD_REACTORS
330
3B
102
}
330
3B
100
AcDbScale
 70
     0
300
6" = 1'-0"
140
6.0
141
12.0
290
     0
  0
SCALE
  5
5C
102
{ACAD_REACTORS
330
3B
102
}
330
3B
100
AcDbScale
 70
     0
300
1'-0" = 1'-0"
140
12.0
141
12.0
290
     0
  0
VISUALSTYLE
  5
2F
102
{ACAD_REACTORS
330
2A
102
}
330
2A
100
AcDbVisualStyle
  2
2dWireframe
 70
     4
 71
     0
 72
     2
 73
     0
 90
        0
 40
-0.6
 41
-30.0
 62
     5
 63
     7
 74
     1
 91
        4
 64
     7
 65
   257
 75
     1
175
     1
 42
1.0
 92
        0
 66
   257
 43
1.0
 76
     1
 77
     6
 78
     2
 67
     7
 79
     5
170
     0
171
     0
290
     0
174
     0
 93
        1
 44
0.0
173
     0
291
     0
 45
0.0
1001
ACAD
1000
AcDbSavedByObjectVersion
1070
     0
  0
VISUALSTYLE
  5
31
102
{ACAD_REACTORS
330
2A
102
}
330
2A
100
AcDbVisualStyle
  2
3D Hidden
 70
     6
 71
     1
 72
     2
 73
     2
 90
        0
 40
-0.6
 41
-30.0
 62
     5
 63
     7
 74
     2
 91
        2
 64
     7
 65
   257
 75
     2
175
     1
 42
40.0
 92
        0
 66
   257
 43
1.0
 76
     1
 77
     6
 78
     2
 67
     7
 79
     3
170
     0
171
     0
290
     0
174
     0
 93
        1
 44
0.0
173
     0
291
     0
 45
0.0
1001
ACAD
1000
AcDbSavedByObjectVersion
1070
     0
  0
VISUALSTYLE
  5
30
102
{ACAD_REACTORS
330
2A
102
}
330
2A
100
AcDbVisualStyle
  2
3dWireframe
 70
     5
 71
     0
 72
     2
 73
     0
 90
        0
 40
-0.6
 41
-30.0
 62
     5
 63
     7
 74
     1
 91
        4
 64
     7
 65
   257
 75
     1
175
     1
 42
1.0
 92
        0
 66
   257
 43
1.0
 76
     1
 77
     6
 78
     2
 67
     7
 79
     5
170
     0
171
     0
290
     0
174
     0
 93
        1
 44
0.0
173
     0
291
     0
 45
0.0
1001
ACAD
1000
AcDbSavedByObjectVersion
1070
     0
  0
VISUALSTYLE
  5
32
102
{ACAD_REACTORS
330
2A
102
}
330
2A
100
AcDbVisualStyle
  2
Basic
 70
     7
 71
     1
 72
     0
 73
     1
 90
        0
 40
-0.6
 41
-30.0
 62
     5
 63
     7
 74
     0
 91
        4
 64
     7
 65
   257
 75
     1
175
     1
 42
1.0
 92
        8
 66
     7
 43
1.0
 76
     1
 77
     6
 78
     2
 67
     7
 79
     5
170
     0
171
     0
290
     0
174
     0
 93
        1
 44
0.0
173
     0
291
     1
 45
0.0
1001
ACAD
1000
AcDbSavedByObjectVersion
1070
     0
  0
VISUALSTYLE
  5
36
102
{ACAD_REACTORS
330
2A
102
}
330
2A
100
AcDbVisualStyle
  2
Brighten
 70
    12
 71
     2
 72
     2
 73
     0
 90
        0
 40
-0.6
 41
-30.0
 62
     5
 63
     7
 74
     1
 91
        4
 64
     7
 65
   257
 75
     1
175
     1
 42
1.0
 92
        8
 66
     7
 43
1.0
 76
     1
 77
     6
 78
     2
 67
     7
 79
     5
170
     0
171
     0
290
     0
174
     0
 93
        1
 44
50.0
173
     0
291
     1
 45
0.0
1001
ACAD
1000
AcDbSavedByObjectVersion
1070
     0
  0
VISUALSTYLE
  5
3A
102
{ACAD_REACTORS
330
2A
102
}
330
2A
100
AcDbVisualStyle
  2
ColorChange
 70
    16
 71
     2
 72
     2
 73
     3
 90
        0
 40
-0.6
 41
-30.0
 62
     5
 63
     8
 74
     1
 91
        4
 64
     7
 65
   257
 75
     1
175
     1
 42
1.0
 92
        8
 66
     8
 43
1.0
 76
     1
 77
     6
 78
     2
 67
     7
 79
     5
170
     0
171
     0
290
     0
174
     0
 93
        1
 44
0.0
173
     0
291
     1
 45
0.0
1001
ACAD
1000
AcDbSavedByObjectVersion
1070
     0
  0
VISUALSTYLE
  5
34
102
{ACAD_REACTORS
330
2A
102
}
330
2A
100
AcDbVisualStyle
  2
Conceptual
 70
     9
 71
     3
 72
     2
 73
     0
 90
        0
 40
-0.6
 41
-30.0
 62
     5
 63
     7
 74
     2
 91
        2
 64
     7
 65
   257
 75
     1
175
     1
 42
40.0
 92
        8
 66
     7
 43
1.0
 76
     1
 77
     6
 78
     2
 67
     7
 79
     3
170
     0
171
     0
290
     0
174
     0
 93
        1
 44
0.0
173
     0
291
     0
 45
0.0
1001
ACAD
1000
AcDbSavedByObjectVersion
1070
     0
  0
VISUALSTYLE
  5
35
102
{ACAD_REACTORS
330
2A
102
}
330
2A
100
AcDbVisualStyle
  2
Dim
 70
    11
 71
     2
 72
     2
 73
     0
 90
        0
 40
-0.6
 41
-30.0
 62
     5
 63
     7
 74
     1
 91
        4
 64
     7
 65
   257
 75
     1
175
     1
 42
1.0
 92
        8
 66
     7
 43
1.0
 76
     1
 77
     6
 78
     2
 67
     7
 79
     5
170
     0
171
     0
290
     0
174
     0
 93
        1
 44
-50.0
173
     0
291
     1
 45
0.0
1001
ACAD
1000
AcDbSavedByObjectVersion
1070
     0
  0
VISUALSTYLE
  5
39
102
{ACAD_REACTORS
330
2A
102
}
330
2A
100
AcDbVisualStyle
  2
Facepattern
 70
    15
 71
     2
 72
     2
 73
     0
 90
        0
 40
-0.6
 41
-30.0
 62
     5
 63
     7
 74
     1
 91
        4
 64
     7
 65
   257
 75
     1
175
     1
 42
1.0
 92
        8
 66
     7
 43
1.0
 76
     1
 77
     6
 78
     2
 67
     7
 79
     5
170
     0
171
     0
290
     0
174
     0
 93
        1
 44
0.0
173
     0
291
     1
 45
0.0
1001
ACAD
1000
AcDbSavedByObjectVersion
1070
     0
  0
VISUALSTYLE
  5
2B
102
{ACAD_REACTORS
330
2A
102
}
330
2A
100
AcDbVisualStyle
  2
Flat
 70
     0
 71
     2
 72
     1
 73
     1
 90
        2
 40
-0.6
 41
30.0
 62
     5
 63
     7
 74
     0
 91
        4
 64
     7
 65
   257
 75
     1
175
     1
 42
1.0
 92
        8
 66
     7
 43
1.0
 76
     1
 77
     6
 78
     2
 67
     7
 79
     5
170
     0
171
     0
290
     0
174
     0
 93
       13
 44
0.0
173
     0
291
     1
 45
0.0
1001
ACAD
1000
AcDbSavedByObjectVersion
1070
     0
  0
VISUALSTYLE
  5
2C
102
{ACAD_REACTORS
330
2A
102
}
330
2A
100
AcDbVisualStyle
  2
FlatWithEdges
 70
     1
 71
     2
 72
     1
 73
     1
 90
        2
 40
-0.6
 41
30.0
 62
     5
 63
     7
 74
     1
 91
        4
 64
     7
 65
   257
 75
     1
175
     1
 42
1.0
 92
        0
 66
   257
 43
1.0
 76
     1
 77
     6
 78
     2
 67
     7
 79
     5
170
     0
171
     0
290
     0
174
     0
 93
       13
 44
0.0
173
     0
291
     1
 45
0.0
1001
ACAD
1000
AcDbSavedByObjectVersion
1070
     0
  0
VISUALSTYLE
  5
2D
102
{ACAD_REACTORS
330
2A
102
}
330
2A
100
AcDbVisualStyle
  2
Gouraud
 70
     2
 71
     2
 72
     2
 73
     1
 90
        2
 40
-0.6
 41
30.0
 62
     5
 63
     7
 74
     0
 91
        4
 64
     7
 65
   257
 75
     1
175
     1
 42
1.0
 92
        0
 66
     7
 43
1.0
 76
     1
 77
     6
 78
     2
 67
     7
 79
     5
170
     0
171
     0
290
     0
174
     0
 93
       13
 44
0.0
173
     0
291
     1
 45
0.0
1001
ACAD
1000
AcDbSavedByObjectVersion
1070
     0
  0
VISUALSTYLE
  5
2E
102
{ACAD_REACTORS
330
2A
102
}
330
2A
100
AcDbVisualStyle
  2
GouraudWithEdges
 70
     3
 71
     2
 72
     2
 73
     1
 90
        2
 40
-0.6
 41
30.0
 62
     5
 63
     7
 74
     1
 91
        4
 64
     7
 65
   257
 75
     1
175
     1
 42
1.0
 92
        0
 66
   257
 43
1.0
 76
     1
 77
     6
 78
     2
 67
     7
 79
     5
170
     0
171
     0
290
     0
174
     0
 93
       13
 44
0.0
173
     0
291
     1
 45
0.0
1001
ACAD
1000
AcDbSavedByObjectVersion
1070
     0
  0
VISUALSTYLE
  5
38
102
{ACAD_REACTORS
330
2A
102
}
330
2A
100
AcDbVisualStyle
  2
Linepattern
 70
    14
 71
     2
 72
     2
 73
     0
 90
        0
 40
-0.6
 41
-30.0
 62
     5
 63
     7
 74
     1
 91
        4
 64
     7
 65
   257
 75
     7
175
     7
 42
1.0
 92
        8
 66
     7
 43
1.0
 76
     1
 77
     6
 78
     2
 67
     7
 79
     5
170
     0
171
     0
290
     0
174
     0
 93
        1
 44
0.0
173
     0
291
     1
 45
0.0
1001
ACAD
1000
AcDbSavedByObjectVersion
1070
     0
  0
VISUALSTYLE
  5
33
102
{ACAD_REACTORS
330
2A
102
}
330
2A
100
AcDbVisualStyle
  2
Realistic
 70
     8
 71
     2
 72
     2
 73
     0
 90
        0
 40
-0.6
 41
-30.0
 62
     5
 63
     7
 74
     1
 91
        0
 64
     7
 65
   257
 75
     1
175
     1
 42
1.0
 92
        8
 66
     8
 43
1.0
 76
     1
 77
     6
 78
     2
 67
     7
 79
     5
170
     0
171
     0
290
     0
174
     0
 93
       13
 44
0.0
173
     0
291
     0
 45
0.0
1001
ACAD
1000
AcDbSavedByObjectVersion
1070
     0
  0
VISUALSTYLE
  5
37
102
{ACAD_REACTORS
330
2A
102
}
330
2A
100
AcDbVisualStyle
  2
Thicken
 70
    13
 71
     2
 72
     2
 73
     0
 90
        0
 40
-0.6
 41
-30.0
 62
     5
 63
     7
 74
     1
 91
        4
 64
     7
 65
   257
 75
     1
175
     1
 42
1.0
 92
       12
 66
     7
 43
1.0
 76
     1
 77
     6
 78
     2
 67
     7
 79
     5
170
     0
171
     0
290
     0
174
     0
 93
        1
 44
0.0
173
     0
291
     1
 45
0.0
1001
ACAD
1000
AcDbSavedByObjectVersion
1070
     0
  0
XRECORD
  5
596
102
{ACAD_REACTORS
330
58D
102
}
330
58D
100
AcDbXrecord
 90
        0
  0
XRECORD
  5
5AC
102
{ACAD_REACTORS
330
58D
102
}
330
58D
100
AcDbXrecord
1000
DSTYLE
1002
{
1070
    41
 40
0.06
1070
   340
340
11
1070
   140
 40
0.0821180555555555
1002
}
  0
XRECORD
  5
597
102
{ACAD_REACTORS
330
58D
102
}
330
58D
100
AcDbXrecord
  1
{CE186ED4-B04B-4131-AD15-667B3F8DBB03}
  0
XRECORD
  5
590
102
{ACAD_REACTORS
330
58D
102
}
330
58D
100
AcDbXrecord
  1

  0
XRECORD
  5
595
102
{ACAD_REACTORS
330
58D
102
}
330
58D
100
AcDbXrecord
 90
        1
  0
XRECORD
  5
592
102
{ACAD_REACTORS
330
58D
102
}
330
58D
100
AcDbXrecord
340
1A
  0
XRECORD
  5
594
102
{ACAD_REACTORS
330
58D
102
}
330
58D
100
AcDbXrecord
 90
    10781
  0
XRECORD
  5
593
102
{ACAD_REACTORS
330
58D
102
}
330
58D
100
AcDbXrecord
340
19
  0
XRECORD
  5
599
102
{ACAD_REACTORS
330
58D
102
}
330
58D
100
AcDbXrecord
 40
0.0
  0
XRECORD
  5
59C
102
{ACAD_REACTORS
330
58D
102
}
330
58D
100
AcDbXrecord
340
0
  0
XRECORD
  5
5A2
102
{ACAD_REACTORS
330
58D
102
}
330
58D
100
AcDbXrecord
 10
0.0
 20
0.0
 30
0.0
  0
XRECORD
  5
59E
102
{ACAD_REACTORS
330
58D
102
}
330
58D
100
AcDbXrecord
 10
0.0
 20
0.0
 30
0.0
  0
XRECORD
  5
5A1
102
{ACAD_REACTORS
330
58D
102
}
330
58D
100
AcDbXrecord
 10
0.0
 20
0.0
 30
0.0
  0
XRECORD
  5
59F
102
{ACAD_REACTORS
330
58D
102
}
330
58D
100
AcDbXrecord
 10
0.0
 20
0.0
 30
0.0
  0
XRECORD
  5
5A0
102
{ACAD_REACTORS
330
58D
102
}
330
58D
100
AcDbXrecord
 10
0.0
 20
0.0
 30
0.0
  0
XRECORD
  5
59D
102
{ACAD_REACTORS
330
58D
102
}
330
58D
100
AcDbXrecord
 10
0.0
 20
0.0
 30
0.0
  0
XRECORD
  5
59A
102
{ACAD_REACTORS
330
58D
102
}
330
58D
100
AcDbXrecord
340
0
  0
XRECORD
  5
59B
102
{ACAD_REACTORS
330
58D
102
}
330
58D
100
AcDbXrecord
 70
     0
  0
XRECORD
  5
591
102
{ACAD_REACTORS
330
58D
102
}
330
58D
100
AcDbXrecord
  1

  0
XRECORD
  5
58E
102
{ACAD_REACTORS
330
58D
102
}
330
58D
100
AcDbXrecord
 90
        1
  0
XRECORD
  5
58F
102
{ACAD_REACTORS
330
58D
102
}
330
58D
100
AcDbXrecord
 90
       70
  0
XRECORD
  5
5A5
102
{ACAD_REACTORS
330
58D
102
}
330
58D
100
AcDbXrecord
340
0
  0
XRECORD
  5
5AB
102
{ACAD_REACTORS
330
58D
102
}
330
58D
100
AcDbXrecord
 10
0.0
 20
0.0
 30
0.0
  0
XRECORD
  5
5A7
102
{ACAD_REACTORS
330
58D
102
}
330
58D
100
AcDbXrecord
 10
0.0
 20
0.0
 30
0.0
  0
XRECORD
  5
5AA
102
{ACAD_REACTORS
330
58D
102
}
330
58D
100
AcDbXrecord
 10
0.0
 20
0.0
 30
0.0
  0
XRECORD
  5
5A8
102
{ACAD_REACTORS
330
58D
102
}
330
58D
100
AcDbXrecord
 10
0.0
 20
0.0
 30
0.0
  0
XRECORD
  5
5A9
102
{ACAD_REACTORS
330
58D
102
}
330
58D
100
AcDbXrecord
 10
0.0
 20
0.0
 30
0.0
  0
XRECORD
  5
5A6
102
{ACAD_REACTORS
330
58D
102
}
330
58D
100
AcDbXrecord
 10
0.0
 20
0.0
 30
0.0
  0
XRECORD
  5
5A3
102
{ACAD_REACTORS
330
58D
102
}
330
58D
100
AcDbXrecord
340
0
  0
XRECORD
  5
5A4
102
{ACAD_REACTORS
330
58D
102
}
330
58D
100
AcDbXrecord
 70
     0
  0
XRECORD
  5
598
102
{ACAD_REACTORS
330
58D
102
}
330
58D
100
AcDbXrecord
  1
{FAEB1C32-E019-11D5-929B-00C0DF256EC4}
  0
DICTIONARYVAR
  5
5AE
102
{ACAD_REACTORS
330
5AD
102
}
330
5AD
100
DictionaryVariables
280
     0
  1
1:1
  0
ENDSEC
  0
EOF
